Oops, an error
Loading. Please wait.

Generator Bass Tab

version 2
version 2

Whole song

Interactive

7,984 views 18 this week
no commentswrite comment
1 2 3 4 5
accurate
x 9
add to favorites
launch autoscroll
font size
0
reset
guitar tuner
Autoscroll
slow
fast
+/-
esc
set tempo
stop
Help us to improve Ultimate-Guitar.com Take our survey!
×
Foo Fighters - Generator (Bass)
(Normal Tuning)


Intro (after first line of guitar riff)
g|--------------------------|
d|--------------------------|
a|-0--let-ring--------------|
e|---------------------0-0*-|
* same time as the two drum hits after the hi-hat intro

g|------------------------------------------|
d|------------------------------------------|
a|-0-0-0-0-0-0-0-0--------------------------|
e|-----------------0-0--2-2-2-2-2-2-2-2-0-0-|

g|------------------------------------------------------|
d|------------------------------------------------------|
a|-0-0-0-0-0-0-0-0----------------------5-5-5-5-5-5-5-5-|
e|-----------------0-0--2-2-2-2-2-2-2-2-----------------|


Verse riff first time
g|---------------------------------------------------------|
d|---------------------------------------------------------|
a|-0-------------------------5-------5-7-8-7-5-5---3-3-2-1-|
e|--------0-0--2--------0-0--------------------------------|

Rest of the time
g|------------------------------------------------------------|
d|------------------------------------------------------------|
a|-0-------------------------5--------4-2-4b5b4-2-4-2-4b5b4-2-|
e|--------0-0--2--------0-0-----------------------------------|


Chorus
g|--------------------------------------------------------------|
d|------------------------------------------------------------4-|
a|-0-0-0-0-0-0-0-0-0--8-8-8-0-8-8-8-0--9-9-9-0-9--------4-5-7---|
e|-------------------------------------------------5-7----------|

g|-------------------------|
d|-5-5-5-7-7-7-9-9-9-/11-0-|
a|-------------------------|
e|-------------------------|

g|-7------7----7-7----------------------|
d|---7h9---7h9------9-7\ 0-2-3-2-0------|
a|--------------------------------------|
e|----------------------------------0-0-|


Bridge
g|-------------------------|
d|-------------------------| (x4)
a|-7-7-5-4-2---------------|
e|------------4-5-7-7/9-0--|

g|-------------------------|
d|-------------------------| (x3)
a|-7-7-7-5-4-2-------------|
e|-------------4-5-7-7/9-0-|

g|------------------------|
d|------------------------|
a|-7-7-7-5-4-2------------|
e|-------------4-5-7-0-0--|


Outro
g|--------------------------------------------|
d|--------------------------------------------|
a|-0-0-0-0-0-0-0-0-----0-0-0-0-0-0-0-0------0-|
e|-----------------0-0------------------0-0---|

___________________________
Tabbed by-Jay.b
Suggest correction
comments
print report bad tab
guest
You may want to rate the tab now too:
select rating
Wanna post a correction for this tab? Suggest correction