Oops, an error
Loading. Please wait.

Gimme Stitches Tab

version 1
version 1

Whole song

Interactive

10,585 views 1 this week
5 commentsread comments
1 2 3 4 5
worth learning
x 8
add to favorites
launch autoscroll
font size
0
reset
how to read this tab
guitar tuner
Tab Pro tools
  • play this tab
  • loop segment
  • change instrument
  • show fretboard
  • metronome
×
Best way to learn
"Gimme Stitches"
Autoscroll
slow
fast
+/-
esc
set tempo
stop
Foo Fighters - Gimme Stitches
(Normal Tuning)

J.C.B

Great song, ive tabbed it as good as they play. Good luck!
Intro
(Gtr. 1)
e||---------------||
B||---------------||
G||---------------||
D||---------------||
A||--2/4-0-0-0-0--||
E||---------------||

(Gtr. 1 - 2nd version)
e||---------------|| 
B||---------------|| 
G||------9-9-9-9--|| 
D||------7-7-7-7--|| 
A||------0-0-0-0--|| 
E||--5/9----------|| 

(Guitar 2)
e||---------------||
B||---------------||
G||--4/6-2-2-2-2--||
D||---------------||
A||---------------||
E||---------------||

(High Guitar)
e||--5---3-5--||
B||----5------|| (Repeat) 
G||-----------||
D||-----------||
A||-----------||
E||-----------||


Verse
A5 G5 F#5 E5


Chorus
A5 D5 F5 C5
"Dress me up in stiches..."
"Blood on you..."


Bridge
     A5 A5/Ab  G5 G5/F# 
e||--------------------||
B||--------------------||
G||--------------------||
D||--7----7----5----5--||
A||--7----7----5----5--||
E||--5----4----3----2--||
  "How can you go on..."


Outro
F5 C5
"Gimme stiches..."


Outro
e||---------------------------------------------------||
B||---------------------------------------------------||
G||---------------------------------------------------||
D||------------------------------------5---7b8r7---5--||
A||------3--5b6r5---3------------5h7------------------||
E||--3/5----------------------------------------------||

___________________________
comments
print report bad tab
5 comments total. Showing first comments.
0 reply
feesk8ordie wrote on January 28 2005, 12:00 am

the intro actually goes:

e|-------------------------|
b|-------------------------| Play this along with the song
g|-------------------------| and see for yourself!
d|-------------------------|
a|--1-/-(5)-0--0--0--0--0--|
e|-------------------------|

0 reply
gavindavis wrote on March 10 2007, 11:23 am

all way off

0 reply
gavindavis wrote on March 10 2007, 11:24 am

intro doesnt even go like that god


e-----------------------
b---------------------
g------------2-2-2--------
d------------2-2-2-(ETC)------
a--3BEND 1/4-0-0-0----
e---------------------

I want to post or [tab]
guest
You may want to rate the tab now too:
select rating
Please do not post tabs as comments. Select "correction" instead!