Oops, an error
Loading. Please wait.

Gimme Stitches Bass Tab

version 2
version 2

Whole song

Interactive

1,243 views 1 this week
no commentswrite comment
1 2 3 4 5
please rate
add to favorites
launch autoscroll
font size
0
reset
guitar tuner
Autoscroll
slow
fast
+/-
esc
set tempo
stop
Help us to improve Ultimate-Guitar.com Take our survey!
×
Author
Difficulty
advanced
Foo Fighters - Gimme Stitches (Bass)
tabbed by - smdbassdude
desudo@hotmail.co.uk

Intro
g|---------------------------------------------------------|
d|---------------------------------------------------------|
a|--2/4-0-0-0-----2/4-0-0-0-----2/4-0-0-0-----2/4-0-0-0-8--|
e|------------0-2-----------0-2-----------0-2--------------|
 (2x)

g|-------------------------------------------------------------|
d|-------------------------------------------------------------|
a|--2/4-0-0-0-----2/4-0-0-0-----2/4-0-0-0-----2/4-0-0-2/4-0-0--|
e|------------0-2-----------0-2-----------0-2------------------|


Verse
g|---------------------------------------------------------|
d|--------------------------------------------------0-2-4--|
a|--2/4-0-0-0-----2/4-0-0-0-----2p0-0-0-0-----0-2-4--------|
e|------------0-2-----------0-2-----------0-2--------------|

g|------------------------------------------------|
d|------------------------------------------------|
a|------0----0-----0---0--2/4-0-0-0--0-2/4-0-0-8--|
E|--2-2---2----0-0---0----------------------------|

g|---------------------------------------------------------|
d|--------------------------------------------------0-2-4--|
a|--2/4-0-0-0-----2/4-0-0-0-----2p0-0-0-0-----0-2-4--------|
e|------------0-2-----------0-2-----------0-2--------------|

g|----------------------------------------------|
d|----------------------------------------------|
a|------0----0-----0---0------------------------|
e|--2-2---2----0-0---0---3-3-3-3-3-3-0-3-0-4-0--|


Chorus
g|----------------------------------------------------------------------|
d|-----------------------------------------------------------5-7-5------|
a|--0-0-0-0-0-0-0-0-0-5-5-5-5-5-5-5-5-5-8-8-8-8-8-8-8-8-8--7-------7-3--|
e|----------------------------------------------------------------------|

g|---------------------------------------------------------------9-12-9-12-----|
d|---------------------------------------------------------10-12-----------12--|
a|--0-0-0-0-0-0-0-0-0-5-5-5-5-5-5-5-5-5-8-8-8-8-8-8-8-8-8----------------------|
e|-----------------------------------------------------------------------------|


Bridge
g|----------------------------------------------|
d|---------------------------5-4-5-4-3-2-0------|
a|-------------------------5---------------3----|
e|-5-5-5-5-5-4-4-4-4-4-4-3-------------------3--|

g|--------------------------------------------------------------------|
d|--------------------------------------------------------------------|
a|-------------3-3--3-3-3------------3-3--3-3-3-----------3-3--3-3-3--|
e|--1-1--1-1-1------------1-1--1-1-1------------1-1--1-1-1------------|


Outro
g|--0h2----------------|
d|------0h2-0h2-0------|
a|----------------3----|
e|------------------3--|

Suggest correction
Give kudos to tab author, rate the tab!
1 2 3 4 5
comments
print report bad tab
guest
You may want to rate the tab now too:
select rating
Please do not post tabs as comments. Select "correction" instead!