Oops, an error
Loading. Please wait.

Gimme Stitches Tab

version 2
version 2

Whole song

Interactive

13,969 views 45 this week
no commentswrite comment
1 2 3 4 5
x 7
add to favorites
launch autoscroll
font size
0
reset
how to read this tab
guitar tuner
Autoscroll
slow
fast
+/-
esc
set tempo
stop
Help us to improve Ultimate-Guitar.com Take our survey!
×
-------------------------------------------------------------------------------
                             GIMME STITCHES - Foo Fighters
-------------------------------------------------------------------------------

Tuning: Guitar 1: Standard
        Guitar 2: Standard

HEY GUYS. THIS IS MY FIRST TAB. IM LIKE 95% SURE ITS CORRECT. I HOPE IT HELPS


Intro pt. 1 (Guitar 1)
e||--------------------------------------------------------------|
b||--------------------------------------------------------------|
g||--------------------------------------------------------------|
d||--------------------------------------------------------------|
a||-2/4--0-0-0-0--2/4--0-0-0-0--2/4--0-0-0-0--2/4--0-0-0--xx-----|
E||------------------------------------------------------xx--15\-|


Intro pt. 1 (Guitar 2)
e||---------------------------------------------------------------|
b||---------------------------------------------------------------|
g||------0-0-0-0-------0-0-0-0-------0-0-0-0-------0-0-0----------|
d||---------------------------------------------------------------|
a||-2/4-----------2/4-----------2/4------------2/4--------xx------|
E||------------------------------------------------------xx--15/--|

Intro pt. 2 (Guitar 1)
||--------------------------------------------------------------|
||--------------------------------------------------------------|
||--------------------------------------------------------------|
||------2-2-2-2-------2-2-2-2-------2-2-2-2-------2-2-2----------| x2
||-2/4--0-0-0-0--2/4--0-0-0-0--2/4--0-0-0-0--2/4--0-0-0---------|
||--------------------------------------------------------------|


Intro pt. 2 (Guitar 2) w/ tremolo
||--5----3---5----3---5--3--------------------------------------|
||---5--------5--------5----------------------------------------|
||--------------------------------------------------------------|
||--------------------------------------------------------------| x2
||--------------------------------------------------------------|
||--------------------------------------------------------------|


Verse (Guitar 1)
||-------------------------------------|
||-------------------------------------|
||-------------------------------------|
||------2-2-2-2-------2-2-2-2----------|
||-2/4--0-0-0-0--2/4--0-0-0-0----------|
||-------------------------------------|

||--------------------------------------------------------------------------|
||-----3-3-3-3-----3-3-3-3--------------------------------------------------|
||-----2-2-2-2-----2-2-2-2--------------------------------------------------|
||-----0-0-0-0-----0-0-0-0--------------------------------------------------| x 2
||--2--0-0-0-0--2--0-0-0-0--4-4-4-4-4--4-4-4-4-4--2-2-2-2-2--2-2-2-2-2--xx--|
||--------------------------2-2-2-2-2--2-2-2-2-2--0-0-0-0-0--0-0-0-0-0--xx--|  

Verse (Guitar 2)
||--5----3---5----3---5--3---5----3---5----3-------3-------3----|
||---5--------5--------5------5--------5-----------3-------3----|
||--------------------------------------------------------------|
||----------------------------------------------0-------0-------|  x2
||--------------------------------------------------------------|
||--------------------------------------------3-------3---------|

Pre-Chorus (both Guitars)
||--3333--3333--3333--33--------|
||--3333--3333--3333--33--------|
||--0000--0000--0000--00--------|
||--0000--0000--0000--00--------|
||--xxxx--xxxx--xxxx--xx--xx-----|
||--3333--3333--3333--33--xx-15/-|

Chorus (both Guitars)

(A)                                            (D)
Dress me up in stitches it's now or never

(F)                                                   (C) 
Tired of wearing black and blue

(A)                                             (D)
Dress me up in stitches it's now or never

(F)                                             (C)    
Dying to get my blood on you


Chords used in Chorus:

       A     D    F    C
||-----------------|
||-----3-----1-----|
||--2--2-----0-----|
||--2--0--3--2-----|
||--0--0--3--3-----|
||--------1--------|


Bridge 1
||----------------------------------------------------------------------|
||----------------------------------------------------------------------|
||----------------------------------------------------------------------|
||--7-7-7-7-7-7-7-7--7-7-7-7-7-7-7-7--5-5-5-5-5-5-5-5--5-5-5-5-5-5-5-5--|
||--7-7-7-7-7-7-7-7--7-7-7-7-7-7-7-7--5-5-5-5-5-5-5-5--5-5-5-5-5-5-5-5--|
||--5-5-5-5-5-5-5-5--4-4-4-4-4-4-4-4--3-3-3-3-3-3-3-3--2-2-2-2-2-2-2-2--|

Bridge 2

(F)                                               (C)
Gimme stitches now or never
(F)                                               (C)
Gimme stitches now or never
(F)                                               (C)
Gimme stitches now or never

||----------------------------------------------------------------------|
||-------------------3-3-3-3-3-3-3-3-------------------1-1-1-1-1-1-1-1--|
||--2-2-2-2-2-2-2-2--2-2-2-2-2-2-2-2-------------------0-0-0-0-0-0-0-0--|
||--2-2-2-2-2-2-2-2--0-0-0-0-0-0-0-0--3-3-3-3-3-3-3-3--2-2-2-2-2-2-2-2--| x2
||--0-0-0-0-0-0-0-0--0-0-0-0-0-0-0-0--3-3-3-3-3-3-3-3--3-3-3-3-3-3-3-3--|
||------------------------------------1-1-1-1-1-1-1-1-------------------|


Chorus 

A)                                            (D)
Dress me up in stitches it's now or never

(F)                                                   (C) 
Tired of wearing black and blue

(A)                                             (D)
Dress me up in stitches it's now or never

(F)                                             (C)    
Dying to get my blood on you

Outro 1

(repeat Bridge 1)

Outro 2 (Guitar 1)

||------------------------------------------------------|
||------------------------------------------------------|
||------------------------------------------------------|
||-------------------------5-5-7-7b8r7-5-----------------|
||-----3-3-5-5b6r5-3----5h7------------------------------|
||--3h5-------------------------------------------------|

Outro 2 (Guitar 2)

(F)                                               (C)
Gimme stitches now or never
(F)                                               (C)
Gimme stitches now or never
(F)                                               (C)
Gimme stitches now or never


Outro 3 (both Guitars)
||-----------------------------|
||-----------------------------|
||-----2----2--2-2-2-----------|
||-----2----2--2-2-2-----------| x3
||---4p0----0--0-0-0-----------|
||-------3b--------------------|

||-------------------------------|
||-------------------------------|
||-----2----2--2-2-2-------------|
||-----2----2--2-2-2-------------| 
||---4p0----0--0-0-0---xx--------|
||-------3b------------xx--15/---|


~:>
(my signature)



| /  slide up
| \  slide down
| h  hammer-on
| p  pull-off
| ~  vibrato
| +  harmonic
| x  Mute note
Suggest correction
comments
print report bad tab
guest
You may want to rate the tab now too:
select rating
Wanna post a correction for this tab? Suggest correction