Oops, an error
Loading. Please wait.

Good Grief Tab

version 2
version 2

Whole song

Interactive

15,058 views 12 this week
3 commentsread comments
1 2 3 4 5
accurate
x 8
add to favorites
launch autoscroll
font size
0
reset
how to read this tab
guitar tuner
Autoscroll
slow
fast
+/-
esc
set tempo
stop
Help us to improve Ultimate-Guitar.com Take our survey!
×
Contributor
high voltage 8,282
Intro/Pre-Verse:

e:--------------------------------|------------------------------|
B:--------------------------------|------------------------------|
G:--------------------------------|------------------------------|
D:-------9---7---9---7---7-9---7--|-0-0---9---7---9---7---7-9-7--|
A:-9-9----------------------------|------------------------------|
E:--------------------------------|------------------------------|

e:-------------------------|------------|
B:-------------------------|------------|
G:-6---9~~~--6---9---6-----|------9~~~--|
D:-------------------------|-9----------|
A:-------------------------|------------|
E:-------------------------|------------|

  Verse:

e:------------------------------------|------------------------------------|
B:------------------------------------|------------------------------------|
G:-4-4-4-4--4-4-4-4--4-4-4-4--4-4-4-4-|-7-7-7-7--7-7-7-7--7-7-7-7--7-7-7-7-|
D:-4-4-4-4--4-4-4-4--4-4-4-4--4-4-4-4-|-7-7-7-7--7-7-7-7--7-7-7-7--7-7-7-7-|
A:-2-2-2-2--2-2-2-2--2-2-2-2--2-2-2-2-|-5-5-5-5--5-5-5-5--5-5-5-5--5-5-5-5-|
E:------------------------------------|------------------------------------|
             Since  I'm   good   and   down                       All the


e:------------------------------------|------------------------------------|
B:------------------------------------|------------------------------------|
G:------------------------------------|------------------------------------|
D:-4-4-4-4--4-4-4-4--4-4-4-4--4-4-4-4-|-7-7-7-7--7-7-7-7--7-7-7-7--7-7-7-7-|
A:-4-4-4-4--4-4-4-4--4-4-4-4--4-4-4-4-|-7-7-7-7--7-7-7-7--7-7-7-7--7-7-7-7-|
E:-2-2-2-2--2-2-2-2--2-2-2-2--2-2-2-2-|-5-5-5-5--5-5-5-5--5-5-5-5--5-5-5-5-|
   truth     is    around     but  I    like   it...


  Chorus:

e:------------------------------------|-----------------------------------|
B:------------------------------------|-----------------------------------|
G:-2-2-2-2--2-2-2-2-------------------|-------------------2-2-2-2--2-2-2-2|
D:-2-2-2-2--2-2-2-2--2-2-2-2--2-2-2-2-|-4-4-4-4--4-4-4-4--2-2-2-2--2-2-2-2|
A:-0-0-0-0--0-0-0-0--2-2-2-2--2-2-2-2-|-4-4-4-4--4-4-4-4--0-0-0-0--0-0-0-0|
E:-------------------0-0-0-0--0-0-0-0-|-2-2-2-2--2-2-2-2------------------|
       Hate it!          Hate it!           Hate it!          Hate it!


e:------------------------------------|------------------------------------|
B:------------------------------------|------------------------------------|
G:------------------------------------|-2-2-2-2--2-2-2-2-------------------|
D:-2-2-2-2--2-2-2-2--4-4-4-4--4-4-4-4-|-2-2-2-2--2-2-2-2--2-2-2-2--2-2-2-2-|
A:-2-2-2-2--2-2-2-2--4-4-4-4--4-4-4-4-|-0-0-0-0--0-0-0-0--2-2-2-2--2-2-2-2-|
E:-0-0-0-0--0-0-0-0--2-2-2-2--2-2-2-2-|-------------------0-0-0-0--0-0-0-0-|
       Hate it!          Hate it!           Hate it!


  Bridge:

e:---------------------------|------------------------------|
B:---------------------------|------------------------------|
G:---------2---2---2---2---2-|---------2---2---2---2---2---4|
D:---------2---2---2---2---2-|---------2---2---2---2---2---4|
A:-2---2---------------------|-2---2------------------------|
E:---------------------------|------------------------------|

e:------------------------------------|------------------|
B:------------------------------------|------------------|
G:-------------------2-2-2-2--2-2-2-2-|------------------|
D:-4-4-4-4--4-4-4-4--2-2-2-2--2-2-2-2-|-2-2-2-2--2-2-2-2-|
A:-4-4-4-4--4-4-4-4--0-0-0-0--0-0-0-0-|-2-2-2-2--2-2-2-2-|
E:-2-2-2-2--2-2-2-2-------------------|-0-0-0-0--0-0-0-0-|


Enjoy!

Hello, everyone.  I have enjoyed many of the transcriptions out there.  They
are very helpful.  I used previous versions of this posting to form my own
interpretation.  So here it goes.

I hear this song a little flat.  I basically play Jeff's (ArglBargle@aol.com)
transcription, but one step low, making A's, B's, and E's flat and making F's
natural (I took a guitar class.  Doesn't it show?)
I use a "Dropped-D" tuning rather than retuning to E flat.  The intro goes
something like this:
        The intro=
E|----------------------------------------------------------------------------|
B|---------------------------------------------------------------------6------|
G|------------------------------------------------8-----------------8-----8---|
D|--------8--6--8--6--8-----8--6--8--6--8-----8----6--8--6--8--6--------------|
A|------8----------------8------------------8---------------------------------|
E|----------------------------------------------------------------------------|
Verse 1:
       Since I'm putting down all of the true things around but I like it
       Handed down the crown, given the jewels and the answers of May
       The thought of being ousted    comes and goes   comes and goes
E|----------------------------------------------------------|  (repeat twice)
B|--3--3--3--3----6--6--6--6--------------------------------|
G|--3--3--3--3----6--6--6--6--------------------------------|
D|--3--3--3--3----6--6--6--6----3--3--3--3----6--6--6--6----|
A|--1--1--1--1----4--4--4--4----3--3--3--3----6--6--6--6----|
E|------------------------------3--3--3--3----6--6--6--6----|

     When I think     about it,          the wind blows     Hate it!    Hate
it!      Hate it!
E|--------------------------------------------------------------------------|
B|--3--3--3--3---6--6--6--6-------------------------------------------------|
G|--3--3--3--3---6--6--6--6-------------------------------------------------|
D|--3--3--3--3---6--6--6--6---3--3--3--3----6--6--6---1--1--1---3--3--3-----|
A|--1--1--1--1---4--4--4--4---3--3--3--3----6--6--6---1--1--1---3--3--3-----|
E|----------------------------3--3--3--3----6--6--6---1--1--1---3--3--3-----|

         Hate it!     Hate it!      Hate it!      Hate it!
E|-------------------------------------------------------|
B|-------------------------------------------------------|
G|--6--6--6---1--1--1---3--3--3--6--6--6----1-1-1-1------|
D|--6--6--6---1--1--1---3--3--3--6--6--6----1-1-1-1------|
A|--6--6--6---1--1--1---3--3--3--6--6--6----1-1-1-1------|
E|-------------------------------------------------------|
Intro played
Verse 2:
      Run me out of town, somewhere a move might intended a gown at
      Pissed at all the bowels, always the blues and a delicate smile
      Miss at all the sideways, gull and noun, gull and noun
      Chills and petty band-aids, wrapped around  Hate it...

Bridge:
                    Good Grief
                                                       Good Grief
E|----------------------------------------------------------------------|
B|----------------------------------------------------------------------|
G|----------------------------------------------------------------------|
D|---6--8--6--8--6--8--6--8---3--3--3--3--3---6--8--6--8--6--8--6--8----|
A|---6--8--6--8--6--8--6--8---3--3--3--3--3---6--8--6--8--6--8--6--8----|
E|---6--8--6--8--6--8--6--8---3--3--3--3--3---6--8--6--8--6--8--6--8----|


E|-----------------------------------------------------------------------------|
B|-----------------------------------------------------------------------------|
G|-----------------------------------------------------------------------------|
D|----3--3--3--3--6--6--6--6--1--1--1--1---3--3--3--3--6--6--6--6--1--1--1--1--|
A|----3--3--3--3--6--6--6--6--1--1--1--1---3--3--3--3--6--6--6--6--1--1--1--1--|
E|----3--3--3--3--6--6--6--6--1--1--1--1---3--3--3--3--6--6--6--6--1--1--1--1--|

Repeat Verse 1

And that's about it.  It's a little different.  I think it sounds cool this
way, and it's easy enough for me to play while singing.  You can try without
the "Dropped-D" but the bridge is a lot harder.  Have fun.  Send comments to
madmac1013@aol.com.

The tab of this song is in normal tuning it was tabbed by Gabriel Jessee
the song was written by Dave Ghrol and this is correct.

Tab notation
                Slide=/
                Vibrato=~~~
                Pull of=p


INTRO

GUITAR 1
                                    LET NOTES RING
1:-------------------------------------------------------------------------|
2:------1-1-1-1-1---1-1-1-1-1-----------4~~--6--4--6P4---------------------|
3:------3-1-1-3-1---3-1-1-3-1---1---2/5~~-5~~-5----------------------------|
4:----3-----------3-----------3---3----------------------------------------|
5:-------------------------------------------------------------------------|
6:-------------------------------------------------------------------------|\
									     \
INTRO									      \
									       }overlaping
GUITAR 2                                                                      /
									     /
1:------------------------------------------------------------------------| /
2:------------------------------------------------------------------------|
3:------------------------------6-6-6-6-6-6-6-6-6-6-6-6-------------------|
4:----3-3-3-3-3-3-3-3-3-3-3-3-3-6-6-6-6-6-6-6-6-6-6-6-6-------------------|
5:----3-3-3-3-3-3-3-3-3-3-3-3-3-4-4-4-4-4-4-4-4-4-4-4-4-------------------|
6:-13/1-1-1-1-1-1-1-1-1-1-1-1-1-------------------------------------------|

VERSE BOTH GUITARS
    SINCE I'V PUTTING  DOWN        ALL THE TRUE THINGS AROUND BUT I LIKE IT
    I HANDED DOWN THE CROWN        GIVEN JEWELS AND THE ANSWERS OF  MAY
    THE THOUGHT OF BEING OUSTED          COMES AND GOES         COMES AND GOES
1:-----------------------------------------------------------------------------------------|
2:-----------------------------------------------------------------------------------------|
3:--3-3-3-3-3-3-3-3-3/6-6-6-6-6-6-6-6-6-6--------------------------------------------------|
4:--3-3-3-3-3-3-3-3-3/6-6-6-6-6-6-6-6-6-6-3-3-3-3-3-3-3-3-3-3-3-3-3-6-6-6-6--6-6-6-6-6-6-6-|
5:--1-1-1-1-1-1-1-1-1/4-4-4-4-4-4-4-4-4-4-3-3-3-3-3-3-3-3-3-3-3-3-3-6-6-6-6--6-6-6-6-6-6-6-|
6:----------------------------------------1-1-1-1-1-1-1-1-1-1-1-1-1-4-4-4-4--4-4-4-4-4-4-4-|


   WHEN I THINK     ABOUT         IT     THE    WIND     BLOW
1:-----------------------------------------------------------------------|
2:-----------------------------------------------------------------------|
3:-3-3-3-3-3-3-3-3-3/6-6-6-6-6-6-6-6-6-6---------------------------------|
4:-3-3-3-3-3-3-3-3-3/6-6-6-6-6-6-6-6-6-6-3-3-3-3-3-3-3-3-3-3-3-3-3-------|
5:-1-1-1-1-1-1-1-1-1/4-4-4-4-4-4-4-4-4-4-3-3-3-3-3-3-3-3-3-3-3-3-3-------|
6:---------------------------------------1-1-1-1-1-1-1-1-1-1-1-1-1-------|


  CHORUS BOTH GUITARS
                HATE IT             HATE IT             HATE IT
HATE IT
1:-----------------------------------------------------------------------------------|
2:-----------------------------------------------------------------------------------|
3:----------------------8-8-8-8-8-8-8-8-8-8------------------------------------------|
4:--6-6-6-6-6-6-6-6-6-6-8-8-8-8-8-8-8-8-8-8-3-3-3-3-3-3-3-3-3-3/6-6-6-6-6-6--6-6-6-6-|
5:--6-6-6-6-6-6-6-6-6-6-6-6-6-6-6-6-6-6-6-6-3-3-3-3-3-3-3-3-3-3/6-6-6-6-6-6--6-6-6-6-|
6:--4-4-4-4-4-4-4-4-4-4---------------------1-1-1-1-1-1-1-1-1-1/4-4-4-4-4-4--4-4-4-4-|

                HATE IT             HATE IT             HATE IT
1:------------------------------------------------------------------------------------|
2:------------------------------------------------------------------------------------|
3:--8-8-8-8-8-8-8-8-8-8-----------------------------------------8/7/8/7/8/7/8/7/8/7/8-|
4:--8-8-8-8-8-8-8-8-8-8-3-3-3-3-3-3-3-3-3-3/6-6-6-6-6-6-6-6-6-6-8/7/8/7/8/7/8/7/8/7/8-|
5:--6-6-6-6-6-6-6-6-6-6-3-3-3-3-3-3-3-3-3-3/6-6-6-6-6-6-6-6-6-6-6/5/6/5/6/5/6/5/6/5/6-|
6:----------------------1-1-1-1-1-1-1-1-1-1/4-4-4-4-4-4-4-4-4-4-----------------------|

INTRO AGAIN


VERSE BOTH GUITARS
    RUN     ME        TOWN        SOMEWHERE A MOVE MIGHT INTENED    A GOWN AT
    PISSED  AT  ALL THE BOWELS    ALWAYS THE BLUES        AND DELICATED SMILE
    MISSED  ALL OF THE   SIDEWAYS         GULL AND   NOUN         GULL AND NOUN
1:-----------------------------------------------------------------------------------------|
2:-----------------------------------------------------------------------------------------|
3:--3-3-3-3-3-3-3-3-3/6-6-6-6-6-6-6-6-6-6--------------------------------------------------|
4:--3-3-3-3-3-3-3-3-3/6-6-6-6-6-6-6-6-6-6-3-3-3-3-3-3-3-3-3-3-3-3-3-6-6-6-6--6-6-6-6-6-6-6-|
5:--1-1-1-1-1-1-1-1-1/4-4-4-4-4-4-4-4-4-4-3-3-3-3-3-3-3-3-3-3-3-3-3-6-6-6-6--6-6-6-6-6-6-6-|
6:----------------------------------------1-1-1-1-1-1-1-1-1-1-1-1-1-4-4-4-4--4-4-4-4-4-4-4-|


   CHILLS AND PETTY BAND-AIDE                WRAPPED  ARUOND
1:-----------------------------------------------------------------------|
2:-----------------------------------------------------------------------|
3:-3-3-3-3-3-3-3-3-3/6-6-6-6-6-6-6-6-6-6---------------------------------|
4:-3-3-3-3-3-3-3-3-3/6-6-6-6-6-6-6-6-6-6-3-3-3-3-3-3-3-3-3-3-3-3-3-------|
5:-1-1-1-1-1-1-1-1-1/4-4-4-4-4-4-4-4-4-4-3-3-3-3-3-3-3-3-3-3-3-3-3-------|
6:---------------------------------------1-1-1-1-1-1-1-1-1-1-1-1-1-------|

  CHORUS BOTH GUITARS
                HATE IT             HATE IT             HATE IT
HATE IT
1:-----------------------------------------------------------------------------------|
2:-----------------------------------------------------------------------------------|
3:----------------------8-8-8-8-8-8-8-8-8-8------------------------------------------|
4:--6-6-6-6-6-6-6-6-6-6-8-8-8-8-8-8-8-8-8-8-3-3-3-3-3-3-3-3-3-3/6-6-6-6-6-6--6-6-6-6-|
5:--6-6-6-6-6-6-6-6-6-6-6-6-6-6-6-6-6-6-6-6-3-3-3-3-3-3-3-3-3-3/6-6-6-6-6-6--6-6-6-6-|
6:--4-4-4-4-4-4-4-4-4-4---------------------1-1-1-1-1-1-1-1-1-1/4-4-4-4-4-4--4-4-4-4-|

                HATE IT             HATE IT             HATE IT
1:-------------------------------------------------------------------------------------|
2:-------------------------------------------------------------------------------------|
3:--8-8-8-8-8-8-8-8-8-8-----------------------------------------8/7/8/7/8/7/8/7/8/7/8--|
4:--8-8-8-8-8-8-8-8-8-8-3-3-3-3-3-3-3-3-3-3/6-6-6-6-6-6-6-6-6-6-8/7/8/7/8/7/8/7/8/7/8--|
5:--6-6-6-6-6-6-6-6-6-6-3-3-3-3-3-3-3-3-3-3/6-6-6-6-6-6-6-6-6-6-6/5/6/5/6/5/6/5/6/5/6--|
6:----------------------1-1-1-1-1-1-1-1-1-1/4-4-4-4-4-4-4-4-4-4------------------------|



BRIDGE GUITAR 1
    GOOD GREIF         GOOD GREIF
1:--------------------------------------------|
2:--------------------------------------------|
3:--------------------------------------------|\
4:-----6---6---6---6-7-----6---6---6---6-7----| \ PLAY GUITAR ONES PART TWICE
5:--/8---8---8---8---9--/8---8---8---8---9----|  \ PLAY GUITAR TWOS PART ONCE
6:--------------------------------------------|   \ WHEN GUITAR 1 PLAYS ITS PART
                                                   } THE 2ND TIME GUITAR 2
						  / PLAYS AN F CHORD
BRIDGE GUITAR 2                                  / UNDER GUITAR 1 THEN WHEN
GUITAR ONES                                     / PART IS OVER THEY BOTH PLAY F,G#,D# TWICE
                                               / THEN PLAY THE INTRO AGAIN DO ANOTHER VERSE
                                              / THEN DO ANOTHER CHORUS
AND END ON THESE NOTES
                                         
1:-------------------------------------| 
2:-------------------------------------| 
3:-------------------------------------| 
4:--6~~~~------------------------------| 
5:--8~~~~------------------------------| 
6:-------------------------------------| 
                                                                                 
1:-------------------------------------------------------------------------------|
2:-------------------------------------------------------------------------------|
3:--1-1-1-1-1-1-1-1-1-1-1-1-1-1-1-1-1-1-1-1-1-1-1-1-1-1-1-1-1-1-1-1-1-1-1-1-1-1--|
4:--3-3-3-3-3-3-3-3-3-3-3-3-3-3-3-3-3-3-3-3-3-3-3-3-3-3-3-3-3-3-3-3-3-3-3-3-3-3--|
5:--3-3-3-3-3-3-3-3-3-3-3-3-3-3-3-3-3-3-3-3-3-3-3-3-3-3-3-3-3-3-3-3-3-3-3-3-3-3--|
6:--1-1-1-1-1-1-1-1-1-1-1-1-1-1-1-1-1-1-1-1-1-1-1-1-1-1-1-1-1-1-1-1-1-1-1-1-1-1--|
comments
print report bad tab
3 comments total.
0 reply
distortionsucks 236 wrote on June 12 2006, 09:18 pm

not even close

0 reply
oISHUTupNrocKIo 19 wrote on February 4 2009, 06:16 pm

You ****ing write a tab for it then.

0 reply
dEipHoBoS 461 wrote on June 15 2009, 03:33 pm

1/2 step down

I want to post or [tab]
guest
You may want to rate the tab now too:
select rating
Please do not post tabs as comments. Select "correction" instead!