Oops, an error
Loading. Please wait.

Good Grief Tab

version 3
version 3

Whole song

Interactive

1,487 views 1 this week
no commentswrite comment
1 2 3 4 5
please rate
add to favorites
launch autoscroll
font size
0
reset
how to read this tab
guitar tuner
Autoscroll
slow
fast
+/-
esc
set tempo
stop
Help us to improve Ultimate-Guitar.com Take our survey!
×
Author
Tuning
D A D G B E
-------------------------------------------------------------------------------
                             GOOD GRIEF - FOO FIGHTERS - FOO FIGHTERS
-------------------------------------------------------------------------------

There are a couple versions that are very close, 
and I have to give them credit, they are what got me to the correct tab. 
I used Jesse Gabriel's verses and chourus, dropped D. 
Otherwise I have tabbed the rest myself. Enjoy.

eBGDAD

Intro x2: 
e|--------------------------------------------------------------------------|
B|--------------------------------------------------------------------------|
G|-----------------------------------------------8---------8-------8--10p8--|
D|------8-6--8--6-6h8-------8-6--8--6-6h8---8\10-----8\10-----10-8----------|
A|--8-8-----------------8-8-------------------------------------------------|
D|--------------------------------------------------------------------------|


Verse 1:

   SINCE I< PUTTING  DOWN           ALL THE TRUE THINGS AROUND BUT I LIKE IT
    I HANDED DOWN THE CROWN        GIVEN JEWELS AND THE ANSWERS OF  MAY
    THE THOUGHT OF BEING OUSTED          COMES AND GOES         COMES AND GOES
e|-----------------------------------------------------------------------------------------|
B|-----------------------------------------------------------------------------------------|
G|--3-3-3-3-3-3-3-3-3/6-6-6-6-6-6-6-6-6-6--------------------------------------------------|
D|--3-3-3-3-3-3-3-3-3/6-6-6-6-6-6-6-6-6-6-3-3-3-3-3-3-3-3-3-3-3-3-3-6-6-6-6--6-6-6-6-6-6-6-|
A|--1-1-1-1-1-1-1-1-1/4-4-4-4-4-4-4-4-4-4-3-3-3-3-3-3-3-3-3-3-3-3-3-6-6-6-6--6-6-6-6-6-6-6-|
D|----------------------------------------3-3-3-3-3-3-3-3-3-3-3-3-3-6-6-6-6--6-6-6-6-6-6-6-|


PreChorus:
   WHEN I THINK     ABOUT         IT     THE    WIND     BLOWS
e|-----------------------------------------------------------------------|
B|-----------------------------------------------------------------------|
G|-3-3-3-3-3-3-3-3-3/6-6-6-6-6-6-6-6-6-6---------------------------------|
D|-3-3-3-3-3-3-3-3-3/6-6-6-6-6-6-6-6-6-6-3-3-3-3-3-3-3-3-3-3-3-3-3-------|
A|-1-1-1-1-1-1-1-1-1/4-4-4-4-4-4-4-4-4-4-3-3-3-3-3-3-3-3-3-3-3-3-3-------|
D|---------------------------------------3-3-3-3-3-3-3-3-3-3-3-3-3-------|


  Chorus:
                HATE IT             HATE IT             HATE IT
HATE IT
e|-----------------------------------------------------------------------------------|
B|-----------------------------------------------------------------------------------|
G|----------------------8-8-8-8-8-8-8-8-8-8------------------------------------------|
D|--6-6-6-6-6-6-6-6-6-6-8-8-8-8-8-8-8-8-8-8-3-3-3-3-3-3-3-3-3-3/6-6-6-6-6-6--6-6-6-6-|
A|--6-6-6-6-6-6-6-6-6-6-6-6-6-6-6-6-6-6-6-6-3-3-3-3-3-3-3-3-3-3/6-6-6-6-6-6--6-6-6-6-|
D|--6-6-6-6-6-6-6-6-6-6---------------------3-3-3-3-3-3-3-3-3-3/6-6-6-6-6-6--6-6-6-6-|

                HATE IT             HATE IT             HATE IT
e|-----------------------------------------------------------------------------------------------|
B|-----------------------------------------------------------------------------------------------|
G|--8-8-8-8-8-8-8-8-8-8--------------------------------------------------------------------------|
D|--8-8-8-8-8-8-8-8-8-8-3-3-3-3-3-3-3-3-3-3/6-6-6-6-6-6-6-6-6-6-13-12-13-12-13-12-13-12-13-12-13-|
A|--6-6-6-6-6-6-6-6-6-6-3-3-3-3-3-3-3-3-3-3/6-6-6-6-6-6-6-6-6-6-13-12-13-12-13-12-13-12-13-12-13-|
D|----------------------3-3-3-3-3-3-3-3-3-3/6-6-6-6-6-6-6-6-6-6-13-12-13-12-13-12-13-12-13-12-13-|



Intro Again, X2:
e|--------------------------------------------------------------------------|
B|--------------------------------------------------------------------------|
G|-----------------------------------------------8---------8-------8--10p8--|
D|------8-6--8--6-6h8-------8-6--8--6-6h8---8\10-----8\10-----10-8----------|
A|--8-8-----------------8-8-------------------------------------------------|
D|--------------------------------------------------------------------------|


Verse 2:
    RUN     ME        TOWN        SOMEWHERE A MOVE MIGHT INTENDED   A GOWN AT
    PISSED  AT  ALL THE BOWELS    ALWAYS THE BLUES         AND DELICATE SMILE
    MISSED  ALL OF THE   SIDEWAYS         GULL AND   NOUN         GULL AND NOUN
e|-----------------------------------------------------------------------------------------|
B|-----------------------------------------------------------------------------------------|
G|--3-3-3-3-3-3-3-3-3/6-6-6-6-6-6-6-6-6-6--------------------------------------------------|
D|--3-3-3-3-3-3-3-3-3/6-6-6-6-6-6-6-6-6-6-3-3-3-3-3-3-3-3-3-3-3-3-3-6-6-6-6--6-6-6-6-6-6-6-|
A|--1-1-1-1-1-1-1-1-1/4-4-4-4-4-4-4-4-4-4-3-3-3-3-3-3-3-3-3-3-3-3-3-6-6-6-6--6-6-6-6-6-6-6-|
D|----------------------------------------3-3-3-3-3-3-3-3-3-3-3-3-3-6-6-6-6--6-6-6-6-6-6-6-|


PreChorus:
   CHILLS AND PETTY BAND-AIDE                WRAPPED  AROUND
e|-----------------------------------------------------------------------|
B|-----------------------------------------------------------------------|
G|-3-3-3-3-3-3-3-3-3/6-6-6-6-6-6-6-6-6-6---------------------------------|
D|-3-3-3-3-3-3-3-3-3/6-6-6-6-6-6-6-6-6-6-3-3-3-3-3-3-3-3-3-3-3-3-3-------|
A|-1-1-1-1-1-1-1-1-1/4-4-4-4-4-4-4-4-4-4-3-3-3-3-3-3-3-3-3-3-3-3-3-------|
D|---------------------------------------3-3-3-3-3-3-3-3-3-3-3-3-3-------|


Chorus:
                HATE IT             HATE IT             HATE IT
HATE IT
e|-----------------------------------------------------------------------------------|
B|-----------------------------------------------------------------------------------|
G|----------------------8-8-8-8-8-8-8-8-8-8------------------------------------------|
D|--6-6-6-6-6-6-6-6-6-6-8-8-8-8-8-8-8-8-8-8-3-3-3-3-3-3-3-3-3-3/6-6-6-6-6-6--6-6-6-6-|
A|--6-6-6-6-6-6-6-6-6-6-6-6-6-6-6-6-6-6-6-6-3-3-3-3-3-3-3-3-3-3/6-6-6-6-6-6--6-6-6-6-|
D|--6-6-6-6-6-6-6-6-6-6---------------------3-3-3-3-3-3-3-3-3-3/6-6-6-6-6-6--6-6-6-6-|

                HATE IT             HATE IT             HATE IT
e|-----------------------------------------------------------------------------------------------|
B|-----------------------------------------------------------------------------------------------|
G|--8-8-8-8-8-8-8-8-8-8--------------------------------------------------------------------------|
D|--8-8-8-8-8-8-8-8-8-8-3-3-3-3-3-3-3-3-3-3/6-6-6-6-6-6-6-6-6-6-13-12-13-12-13-12-13-12-13-12-13-|
A|--6-6-6-6-6-6-6-6-6-6-3-3-3-3-3-3-3-3-3-3/6-6-6-6-6-6-6-6-6-6-13-12-13-12-13-12-13-12-13-12-13-|
D|----------------------3-3-3-3-3-3-3-3-3-3/6-6-6-6-6-6-6-6-6-6-13-12-13-12-13-12-13-12-13-12-13-|


Bridge:
e|-------------------------------------------------------------------|
B|-------------------------------------------------------------------|
G|-------------------------------------------------------------------|
D|--6--8--6--8--6--8--6--8---3-3-3-3-3-3-3-3--6--8--6--8--6--8--6--8-|
A|--6--8--6--8--6--8--6--8---3-3-3-3-3-3-3-3--6--8--6--8--6--8--6--8-|
E|--6--8--6--8--6--8--6--8---3-3-3-3-3-3-3-3--6--8--6--8--6--8--6--8-|
                             ^a lot of F
e|----------------------------------------------------------------------------------|
B|----------------------------------------------------------------------------------|
G|----------------------------------------------------------------------------------|
D|-3-3-3-3-3-3-3--6--6--6--6--1--1--1--1---3-3-3-3-3-3-3-3--6--6--6--6--1--1--1--1--|
A|-3-3-3-3-3-3-3--6--6--6--6--1--1--1--1---3-3-3-3-3-3-3-3--6--6--6--6--1--1--1--1--|
E|-3-3-3-3-3-3-3--6--6--6--6--1--1--1--1---3-3-3-3-3-3-3-3--6--6--6--6--1--1--1--1--|
   ^not sure if there are 16 or 8                           ^not sure if there are 4 or 8


Intro again, x2
e|--------------------------------------------------------------------------|
B|--------------------------------------------------------------------------|
G|-----------------------------------------------8---------8-------8--10p8--|
D|------8-6--8--6-6h8-------8-6--8--6-6h8---8\10-----8\10-----10-8----------|
A|--8-8-----------------8-8-------------------------------------------------|
D|--------------------------------------------------------------------------|

Verse 1 again:
   SINCE I'M PUTTING  DOWN        ALL THE TRUE THINGS AROUND BUT I LIKE IT
    I HANDED DOWN THE CROWN        GIVEN JEWELS AND THE ANSWERS OF  MAY
    THE THOUGHT OF BEING OUSTED          COMES AND GOES         COMES AND GOES
e|-----------------------------------------------------------------------------------------|
B|-----------------------------------------------------------------------------------------|
G|--3-3-3-3-3-3-3-3-3/6-6-6-6-6-6-6-6-6-6--------------------------------------------------|
D|--3-3-3-3-3-3-3-3-3/6-6-6-6-6-6-6-6-6-6-3-3-3-3-3-3-3-3-3-3-3-3-3-6-6-6-6--6-6-6-6-6-6-6-|
A|--1-1-1-1-1-1-1-1-1/4-4-4-4-4-4-4-4-4-4-3-3-3-3-3-3-3-3-3-3-3-3-3-6-6-6-6--6-6-6-6-6-6-6-|
D|----------------------------------------3-3-3-3-3-3-3-3-3-3-3-3-3-6-6-6-6--6-6-6-6-6-6-6-|


PreChorus:
   WHEN I THINK     ABOUT         IT     THE    WIND     BLOWS
e|-----------------------------------------------------------------------|
B|-----------------------------------------------------------------------|
G|-3-3-3-3-3-3-3-3-3/6-6-6-6-6-6-6-6-6-6---------------------------------|
D|-3-3-3-3-3-3-3-3-3/6-6-6-6-6-6-6-6-6-6-3-3-3-3-3-3-3-3-3-3-3-3-3-------|
A|-1-1-1-1-1-1-1-1-1/4-4-4-4-4-4-4-4-4-4-3-3-3-3-3-3-3-3-3-3-3-3-3-------|
D|---------------------------------------3-3-3-3-3-3-3-3-3-3-3-3-3-------|


  Chorus:
                HATE IT             HATE IT             HATE IT
HATE IT
e|-----------------------------------------------------------------------------------|
B|-----------------------------------------------------------------------------------|
G|----------------------8-8-8-8-8-8-8-8-8-8------------------------------------------|
D|--6-6-6-6-6-6-6-6-6-6-8-8-8-8-8-8-8-8-8-8-3-3-3-3-3-3-3-3-3-3/6-6-6-6-6-6--6-6-6-6-|
A|--6-6-6-6-6-6-6-6-6-6-6-6-6-6-6-6-6-6-6-6-3-3-3-3-3-3-3-3-3-3/6-6-6-6-6-6--6-6-6-6-|
D|--6-6-6-6-6-6-6-6-6-6---------------------3-3-3-3-3-3-3-3-3-3/6-6-6-6-6-6--6-6-6-6-|

                HATE IT             HATE IT             HATE IT
e|-----------------------------------------------------------------------------------------------|
B|-----------------------------------------------------------------------------------------------|
G|--8-8-8-8-8-8-8-8-8-8--------------------------------------------------------------------------|
D|--8-8-8-8-8-8-8-8-8-8-3-3-3-3-3-3-3-3-3-3/6-6-6-6-6-6-6-6-6-6-13-12-13-12-13-12-13-12-13-12-13-|
A|--6-6-6-6-6-6-6-6-6-6-3-3-3-3-3-3-3-3-3-3/6-6-6-6-6-6-6-6-6-6-13-12-13-12-13-12-13-12-13-12-13-|
D|----------------------3-3-3-3-3-3-3-3-3-3/6-6-6-6-6-6-6-6-6-6-13-12-13-12-13-12-13-12-13-12-13-|


end on:
e|---|
B|---|
G|-3-|
D|-3-|
A|-1-|
D|---|


good song, lemme know what you think
Suggest correction
Give kudos to tab author, rate the tab!
1 2 3 4 5
comments
print report bad tab
guest
You may want to rate the tab now too:
select rating
Wanna post a correction for this tab? Suggest correction