Oops, an error
Loading. Please wait.

Have It All Tab

version 2
version 2

Whole song

Interactive

2,118 views 6 this week
no commentswrite comment
1 2 3 4 5
accurate
x 5
add to favorites
launch autoscroll
font size
0
reset
how to read this tab
guitar tuner
Tab Pro tools
  • play this tab
  • loop segment
  • change instrument
  • show fretboard
  • metronome
×
Best way to learn
"Have It All"
Autoscroll
slow
fast
+/-
esc
set tempo
stop
Difficulty
Tuning
intermediate
E A D G B E
Foo Fighters - Have It All

Album: 2002 - One By One
Instrument: Guitar
Tuning: eBGDAE

Tabbed By: Foo Fan Kieran


Intro
e|---------------|
B|---------------|
G|-----5------5--|
D|-4-4-5--4-4-5--| Repeated
A|---------------|
E|---------------|

Intro pt. 2
G1.
e|------------|
B|------------|
G|-2-Let Ring-|
D|-2-Let Ring-|
A|-0-Let Ring-|
E|------------|

G2 - Dave [Riff A]
e|------------------------------------------------------|
B|------------------------------------------------------|
g|------------------------------7-7-7-7-7-7-5-5-5-5-5-5-|
d|--------------------7-------7-7-7-7-7-7-7-5-5-5-5-5-5-|
a|--0-0-0-/7-0-0-/7-0--0-/7-0---5-5-5-5-5-5-3-3-3-3-3-3-|Repeat
E|------------------------------------------------------|

Then in some part G1. (Chris) enters with
e|-----------|
B|-----------|
G|--5--7-8-0-|
D|--5--7-8-0-|
A|--3--5-6-0-|
E|---------0-|

While Dave Keeps playing the same and some guitar does the above thing, Chris plays:
(In the album there are three guitars doing these things, but live Dave splits the two 
parts).
e|------------------------------------------------------------------------------------------|
B|------------------------------------------------------------------------------------------|
G|--------------12-12-------------12-12--------------------------------11-11----------------|
D|--------10-10-------------10-10-------10-10-------10-10--------10-10-------10-10------10~-|
A|--12-12-------------12-12-------------------12-12--------12-12--------------------12------|Repeat
E|------------------------------------------------------------------------------------------|

The fourth time:
e|---------------|
B|---------------|
G|---------------|
D|---------------|
A|-11/12-11/12~--|
E|---------------|
That's just a slight idea of the riff, the notes are ok, you should listen to the song 
get timing and...

Dave (Live)
e|--------------------------------------------------------|
B|--------------------------------------------------------|
G|------------------------------7-7-7-7-7-7-5-5-5-5-7-8-0-|
D|--------------------7-------7-7-7-7-7-7-7-5-5-5-5-7-8-0-|
A|--0-0-0-/7-0-0-/7-0--0-/7-0---5-5-5-5-5-5-3-3-3-3-5-6-0-|Repeat
E|--------------------------------------------------------|


Verses: One Guitar Briefly plays the riff on the tab and the other just plays the chords
                A                     D          C
e|------------------------------------------------------|
B|------------------------------------------------------|
G|------------------------------7-7-7-7-7-7-5-5-5-5-5-5-|
D|--------------------7-------7-7-7-7-7-7-7-5-5-5-5-5-5-|
A|--0-0-0-/7-0-0-/7-0--0-/7-0---5-5-5-5-5-5-3-3-3-3-3-3-|Repeat X4
E|------------------------------------------------------|


After the Fourth Time:
e|--------|
B|-0--0-0-|
G|-4--6-6-|
D|-7--7-7-|
A|--------|
E|--------|


Pre-Chorus: Very difficult to hear, too much distortion.(soon to be improved).By now 
play around with A and D(octaves)
e|---------------------|
B|---------------------|
G|-----7-9-7-9-7-9-7-9-|
D|-7---0-0-0-0-0-0-0-0-|
A|-0-------------------|
E|---------------------|


Chorus:
   G   F#/D   F   A
e|-3-3-----------------|
B|-3-3--3-3------------|
G|-0-0--2-2--2-2--2-2--|
D|-0-0--0-0--3-3--2-2--|
A|-2-2--x-x--3-3--0-0--|
E|-3-3--2-2--1-1-------|


Bridge
e|----------------------------------------|
B|----------------------------------------|
G|-------------------5-----5-----5-----5--|
D|---------------4-4-5-4-4-5-4-4-5-4-4-5--|
A|-4-4-4-2-0-0-0--------------------------|
E|----------------------------------------|


Ending
Play with the A string for some time
e|------------------------|
B|------------------------|
G|------------------------|
D|------------------------|
A|-0-0-0-0^-0^^-0-0-0-0-0-|
E|------------------------|

Then play this
e|----------------------|
B|-8--8--8--8--8--8--8--|
G|-12-12-12-12-12-12-12-|
D|-0--0--0--0--0--0--0--|
A|-0--0--0--0--0--0--0--|
E|----------------------|

And always play
e|-----------|
B|-----------|
G|--5--7-8-0-|
D|--5--7-8-0-|
A|--3--5-6-0-|
E|---------0-| Finish playing this riff several times
comments
print report bad tab
I want to post or [tab]
guest
You may want to rate the tab now too:
select rating
Please do not post tabs as comments. Select "correction" instead!