Oops, an error
Loading. Please wait.

Hell Bass Tab

version 1
version 1

Whole song

Interactive

1,069 views 3 this week
3 commentsread comments
1 2 3 4 5
1 last vote to show rating
add to favorites
launch autoscroll
font size
0
reset
guitar tuner
Autoscroll
slow
fast
+/-
esc
set tempo
stop
Help us to improve Ultimate-Guitar.com Take our survey!
×
Author
-------------------------------------------------------------------------------
			     HELL - Foo Fighters
-------------------------------------------------------------------------------
Tabbed by:39/Smooth
Tuning:GDAD
no one has submitted this TAB

Verse 1
G|---------------------------------|----------------------------------|
D|---------------------------------|----------------------------------|
A|-10\9\7\5---7\5\3---3-3-2-0------|-10\9\7\5---7\5\3---3-3-2-0-------|
D|---------------------------------|----------------------------------|

G|------------------|
D|------------------|
A|-10\9\7\5--/7-----|
D|------------------|

G|------------------------------------------------------------|
D|----------4/5-555-5-555-5-554-444-4-444-4-444-444-4-444-4-44|
A|-3---5/7----------------------------------------------------|
D|------------------------------------------------------------|

G|---------------------------------|----------------------------------|
D|---------------------------------|----------------------------------|
A|-10\9\7\5---7\5\3---3-3-2-0------|-10\9\7\5---7\5\3---3-3-2-0-------|
D|---------------------------------|----------------------------------|

G|------------------|
D|------------------|
A|-10\9\7\5--/7-----|
D|------------------|

G|--------------------------------------------|--------------------------------------------|
D|----------4/5-555-5-555-5-554-444-4-444-4-44|----------4/5-555-5-555-5-554-444-4-444-4-44|
A|-3---5/7------------------------------------|-3---5/7------------------------------------|
D|--------------------------------------------|--------------------------------------------|


Chorus
G|-------------------------------------------------|
D|-------------------------------------------------|
A|-------------------------------------------------|
D|-10---10-----12---12-----10---10-----12---12-----|

G|-----------------------------------------------------|
D|-----------------------------------------------------|
A|-----------------------------------------------------|
D|-9---9-----7---7-----12---12-----9---9-----7---7-----|


Pre-Verse
G|--------------------------|
D|--------------------------|
A|--------------------------|
D|-0---///12-0---(5)///12---|


Verse 2
G|-----------------------------------------------------------------|
D|-----------------------------------------------------------------|
A|-5-555-5-555-5-555-555-5-555-5-555-555-5-555-5-555-555-5-555-5-55|
D|-----------------------------------------------------------------|

G|--------------------------------------------------------------------------------|
D|--------------------------------5-555-5-555-5-554-444-4-444-4-444-444-4-444-4-44|
A|-5-555-5-555-5-550---0/30-000/5-------------------------------------------------|
D|--------------------------------------------------------------------------------|

G|-----------------------------------------------------------------|
D|-----------------------------------------------------------------|
A|-5-555-5-555-5-555-555-5-555-5-555-555-5-555-5-555-555-5-555-5-55|
D|-----------------------------------------------------------------|

G|-----------------------------------------------------------------|
D|---------------------------------5-555-5-555-5-554-444-4-444-4-44|
A|-5-555-5-555-5-553p0--3p0---00/5---------------------------------|
D|-----------------------------------------------------------------|

G|-----------------------------------------------------------------|
D|---------------------------------5-555-5-555-5-554-444-4-444-4-44|
A|-5-555-5-555-5-553p0--3p0----5p0---------------------------------|
D|-----------------------------------------------------------------|


Chorus
G|-----------------------------------------------------|
D|-----------------------------------------------------|
A|-----------------------------------------------------|
D|-10---10---10-12---12---12-10---10---10-12---12---12-|

G|------------------------------------------------------|
D|------------------------------------------------------|
A|------------------------------------------------------|
D|-9---9---9-7---7---7-12---12---12-9---9---9-7---7---7-|


Outro
G|--------------------------|
D|--------------------------|
A|--------------------------|
D|-0---///12-0---(5)///12\--|
Suggest correction
Give kudos to tab author, rate the tab!
1 2 3 4 5
comments
print report bad tab
3 comments total.
0 reply
Zildjian123 115 Apr 15, 2006 04:06 PM

I havent played this tab yet, but it looks pretty correct.

0 reply
inyourhonor16 10 Apr 17, 2006 08:35 PM

it is correct, great TAB by the way

0 reply
Androide 10 Oct 04, 2008 10:44 AM

great TAB, it was really helpful =]

guest
You may want to rate the tab now too:
select rating
Wanna post a correction for this tab? Suggest correction