Oops, an error
Loading. Please wait.

Hey Johnny Park Bass Tab

version 2
version 2

Whole song

Interactive

8,159 views 12 this week
1 commentread comment
1 2 3 4 5
excellent!
x 5
add to favorites
launch autoscroll
font size
0
reset
guitar tuner
Tab Pro tools
  • play this tab
  • loop segment
  • change instrument
  • show fretboard
  • metronome
×
Best way to learn
"Hey Johnny Park"
Autoscroll
slow
fast
+/-
esc
set tempo
stop
Contributor
Difficulty
Tuning
intermediate
D A D G B E
Foo Fighters - Hey, Johnny Park! (Bass tab from www.fftabs.com)
(Drop D Tuning)


Intro
G-----------------------------------------------------------------
D-----------------------------------------------------------------
A-2---2-2---------0---0-0-----------------------------------------
D---------------------------------2---2-2---2-2-----2---2-4-------

G-----------------------------------------------------------------
D-------------------------------------------5---------------------
A-----------------5---5---------0-5h7-7-5h7---7-----7-5-7-5-------
D-5---5-----------------------------------------------------------

G-----------------------------------------------------------------
D-----------------------------------------------------------------
A-2---2-2---------0---0-0-----------------------------------------
D---------------------------------2---2-2---2-2-----2---2-4-------

G---------------------------------
D---------------------------------
A-----------------5---5---5---5---
D-5---5---------------------------

Verse 1
Then no bass till 0:45
G-----------------------------------------------------------------
D---------4~----4~------------4---------------7~------7-----------
A-2~------------------2---5-------5~----------------------5-------
D-----------------------------------------------------------------

G---------------------------------------------7x------------------
D---------4~----4~------------4---------7~----------------5~------
A-2~------------------2---5-------5~------------------5~------5---
D-----------------------------------------------------------------

G-----------------------------------------------------------------
D---------4~------2-0-----2---2h4---------------------------------
A-2~------------------2-----2-------------------------------------
D---------------------------------7---7---7---7---7---7---7---7\--

G-----------------------------------------------------------------
D-----------------------------------------------------------------
A-----------------------------------------------------------------
D-2---2---2---2-0h2-0h2---2---2-0h2-0h2---2---2-0h2-------2---4---

Chorus 1
G-----------------------------------------------------------------
D-------------------------------------------------2---2---4-------
A-----------------------------------------5---5---------------5---
D-5---5---4---5---2---2---5---4---0---0--------------------------- x2

G-----------------------------------------------------------------
D-----------------------------------------7-------5---4-----------
A---------------------------------------------5-----------5---0---
D-5---5---4---5---2---2---5---4---0---0---------------------------

Bridge 1
G-----------------------------------------------------------------
D-----------------------------------------------------------------
A-3---3---3---3h5-2---2---2---5-----------------------------------
D---------------------------------3---3---3---3---0---0---0---0---

G-----------------------------------------------------------------
D-----------------------------------------------------------------
A-3---3---3---3h5-2---2---2---5-----------------------------------
D---------------------------------3---3---3---3---0---------------

Verse 2
G-----------------------------------------------------------------
D---------4~----4~------------4-----------7---7~------7-----------
A-2~------------------2---5-------5~----------------------5-------
D-----------------------------------------------------------------

G-----------------------------------------------7x----------------
D---------4~----4~--0---------4-/-7~----------------------7~------
A-2~------------------2---5---------------5~----------5~------5---
D-----------------------------------------------------------------

G-----------------------------------------------------------------
D---------4~----4~------------------------------------------------
A-2~------------------2---5---5h7---------------------------------
D---------------------------------7---7---7---7---7---7---7---7\--

G-----------------------------------------------------------------
D-----------------------------------------------------------------
A-----------------------------------------------------------------
D-2---2---2---2-0h2-0h2---2---2-0h2-0h2---2---2-0h2-------2---4---

Chorus 2 - same as Chorus 1
Bridge 2
G-------------------------------|---------------------------------
D-------------------------------|---------------------------------
A-3---3---3---3h5-2---2---2---5-|---------------------------------
D-------------------------------|-3---3---3---3---0---0---0---0--- x3

G---------------------------------
D---------------------------------
A-3---3---3---3h5-7---7---7---7---
D---------------------------------
Interlude
G-----------------------------------------------------------------
D-----------------------------------------------------------------
A-2---2-2---------0---0-0-----------------------------------------
D---------------------------------2---2-2---0-2-----2-0-2-0------- x2

G-----------------------------------------------------------------
D-----------------------------------------------------------------
A-2---2-2---------0---0-0-----------------------------------------
D---------------------------------2---2-2---0-2-----2-0-2-4-------

G---------------------------------
D---------------------------------
A-----------------5---5---5---5---
D-5---5---5---5------------------- x2

G---------------------
D---------------------
A---------------------
D-5-------5---5---4~--

Verse 3
G-----------------------------------------------------------------
D-----------------------------------------------------------------
A-2-2-2-2-2-2-2-2-2-2-2-2-2-2-2-2-5-5-5-5-5-5-5-5-5-5-5-5-5-5-5-5-
D----------------------------------------------------------------- x2

G-----------------------------------------------------------------
D---------4-----------4-------4-----------------------------------
A-2-2-2-2---2-2-2-2-2---2-2-2---2-0-0-0-0-4-0-0-4-5-0-0-4-5-0-4-0-
D-----------------------------------------------------------------

G-----------------------------------------------------------------
D-----------------------------------------------------------------
A-----------------------------------------------------------------
D-2---2---2---2-0-2-0-2---2---2-0-2-0-2---2---2-0-2-0-2-0-2-4-----

Chorus 3
G-------------------------------|---------------------------------	
D-------------------------7h9p7-|-0---0---0---0---7---0---5---4---
A---------------------5---------|---------------------------------
D-5---5---5---5---5-------------|--------------------------------- x2

G-------------------------------|---------------------------------
D-------------------------7h9p7-|-7---7---5---5---4---------------
A---------------------5---------|---------------------7---5---0---
D-5---5---5---5---5-------------|---------------------------------

G-------------------------------|---------------------------------
D-------------------------------|---------------------------------
A-3---3---3---3h5-2---2---2-----|---------------------------------
D-----------------------------0-|-3---3---3---3---0---0---0---0--- x2

G-------------------------------|---------------------------------
D---------------------5---7~----|---------------------------------
A-3---3---3---3h5-2-------------|---------------------------------
D-------------------------------|-3---3---3---3---0---0---0---0---

G-------------------------------|---------------------------------
D-------------------------------|---------------------------------
A-3---3---3---3h5-2---2---2-----|---------------------------------
D-----------------------------0-|-3---3---3---3---0---0---2---0---
comments
print report bad tab
1 comment total.
+2 reply
drummerb wrote on October 16 2007, 08:05 am

good

I want to post or [tab]
guest
You may want to rate the tab now too:
select rating
Please do not post tabs as comments. Select "correction" instead!