Oops, an error
Loading. Please wait.
We have an official Hey Johnny Park tab made by UG professional guitarists. Check out the tab »
×
244 views 3 this week
no commentswrite comment
1 2 3 4 5
3 more votes to show rating
add to favorites
×
Save as Personal and add changes to this tab that will be seen only by you. Learn more ›
×
You can save this tab as Personal to edit and correct it or add notes. All changes will be seen only by you. Learn more »
launch autoscroll
font size
0
reset
guitar tuner
backing track
0:00
0:00
edit
Autoscroll
slow
fast
+/-
esc
set tempo
stop
"HEY, JOHNNY PARK!"

by FOO FIGHTERS

From the album "THE COLOUR & THE SHAPE" (1997)


BASS GUITAR TUNING = DROP D (DADG)

TEMPO = approx. 85bpm

TIME SIGNATURE = 4/4




                               -=- BASS -=-


|----------------------------- INTRO (0:00) ----------------------------|
|                                                                       |
|                                                                       |
| E E E E E E E E   E E E E E E E E   E E E E E E E E   E E E E E E E E |
|-----------------|-----------------|-----------------|-----------------|
|-----DRUM--------|-----DRUM--------|-----------------|-----------------|
|-------INTRO-----|-------INTRO-----|-2---2-----------|-0---0-----------|
|-----------------|-----------------|-----------------|-----------------|

  E E E E E E E E   E E E E E E E E   E E E E E E E E   E E E E E E E E
|-----------------|-----------------|-----------------|-----------------|
|-----------------|-----------------|-----------------|-----------------|
|-----------------|-----------------|-----------------|-5---5---------5-|
|-2---2-2-2-0-2---|---2-2-0-2-4-----|-5---5-----------|-----------------|

  E E E E E E E E   E E E E E E E E   E E E E E E E E   E E E E E E E E
|-----------------|-----------------|-----------------|-----------------|
|-----------5-----|-----------------|-----------------|-----------------|
|-5h7-7-5-7---7---|---7-5h7-7-0-5-0-|-2---2-----------|-0---0-----------|
|-----------------|-----------------|-----------------|-----------------|

  E E E E E E E E   E E E E E E E E   E E E E E E E E   E E E E E E E E
|-----------------|-----------------|-----------------|-----------------|
|-----------------|-----------------|-----------------|-----------------|
|-----------------|-----------------|-----------------|-5---5---5---5---|
|-2---2-2-2-0-2---|---2-2-0-2-4-----|-5---5-----------|-----------------|



|---------------------------- VERSE 1 (0:23) ---------------------------|
|                                                                       |
|                                                                       |
| E E E E E E E E   E E E E E E E E   E E E E E E E E   E E E E E E E E |
|-----------------|-----------------|-----------------|-----------------|
|-----------------|-----------------|-----------------|-----------------|
|-----------------|-----------------|-----------------|-----------------|
|-----------------|-----------------|-----------------|-----------------|

  E E E E E E E E   E E E E E E E E   E E E E E E E E   E E E E E E E E
|-----------------|-----------------|-----------------|-----------------|
|-----------------|-----------------|-----------------|-----------------|
|-----------------|-----------------|-----------------|-----------------|
|-----------------|-----------------|-----------------|-----------------|

  E E E E E E E E   E E E E E E E E   E E E E E E E E   E E E E E E E E
|-----------------|-----------------|-----------------|-----------------|
|-----------------|-----------------|-----------------|-----------------|
|-----------------|-----------------|-----------------|-----------------|
|-----------------|-----------------|-----------------|-----------------|

  E E E E E E E E   E E E E E E E E   E E E E E E E E   E E E E E E E E
|-----------------|-----------------|-----------------|-----------------|
|-----------------|-----------------|-----------------|-----------------|
|-----------------|-----------------|-----------------|-----------------|
|-----------------|-----------------|-----------------|-----------------|

  E E E E E E E E   E E E E E E E E   E E E E E E E E   E E E E E E E E
|-----------------|-----------------|-----------------|-----------------|
|---------4-----4-|-----------------|---------------7-|-----7-----------|
|-2---------------|---2-0---2---2/--|-5-------5---5---|---------5\------|
|-----------------|-----------------|-----------------|-----------------|

  E E E E E E E E   E E E E E E E E   E E E E E E E E   E E E E E E E E
|-----------------|-----------------|---------------6-|-----------------|
|---------4-----4-|-------------4/--|-7---------------|---------7-------|
|-2---------------|---2-0---2-------|---------5---5---|-----5-------5---|
|-----------------|-----------------|-----------------|-----------------|

  E E E E E E E E   E E E E E E E E   E E E E E E E E   E E E E E E E E
|-----------------|-----------------|-----------------|-----------------|
|---------4-----4-|-----------------|-----------------|-----------7-----|
|-2---------------|---2-0---2-0-2-5-|-0---0---0-----0-|-0-0---0-----5\--|
|-----------------|-----------------|-----------------|-----------------|

  E E E E E E E E   E E E E E E E E   E E E E E E E E   E E E E E E E E
|-----------------|-----------------|-----------------|-----------------|
|-----------------|-----------------|-----------------|-----------------|
|-----------------|-----------------|-----------------|-----------------|
|-2---2---2-----0-|-2-0-2---2-----0-|-2-0-2---2-----2-|-0-2-----2---4---|



|--------------------------- CHORUS 1 (1:07) ---------------------------|
|                                                                       |
|                                                                       |
| E E E E E E E E   E E E E E E E E   E E E E E E E E   E E E E E E E E |
|-----------------|-----------------|-----------------|-----------------|
|-----------------|-----------------|-----------------|-----------------|
|-----------------|-----------------|---------5---5---|-7---7---9---5---|
|-5---5---4---4---|-2---2---5---4---|-0---0-----------|-----------------|

  E E E E E E E E   E E E E E E E E   E E E E E E E E   E E E E E E E E
|-----------------|-----------------|-----------------|-----------------|
|-----------------|-----------------|-----------------|-----------------|
|-----------------|-----------------|---------5---5---|-7---7---9---5---|
|-5---5---4---4---|-2---2---5---4---|-0---0-----------|-----------------|

  E E E E E E E E   E E E E E E E E   E E E E E E E E   E E E E E E E E
|-----------------|-----------------|-----------------|-----------------|
|-----------------|-----------------|---------7---0---|-5---4-----------|
|-----------------|-----------------|-----------------|---------5---0---|
|-5---5---4---4---|-2---2---5---4---|-0---0-0---------|-----------------|



|------------------------- POST CHORUS 1 (1:24) ------------------------|
|                                                                       |
|                                                                       |
| E E E E E E E E   E E E E E E E E   E E E E E E E E   E E E E E E E E |
|-----------------|-----------------|-----------------|-----------------|
|-----------------|-----------------|-----------------|-----------------|
|-3---3---3---3h5-|-2---2---2---5---|-----------------|-----------------|
|-----------------|-----------------|-3---3---3---3---|-0---0---0---0---|

  E E E E E E E E   E E E E E E E E   E E E E E E E E   E E E E E E E E
|-----------------|-----------------|-----------------|-----------------|
|-----------------|-----------------|-----------------|-----------------|
|-3---3---3---3h5-|-2---2---2---5---|-----------------|-----------------|
|-----------------|-----------------|-3---3---3---3---|-0---------------|



|---------------------------- VERSE 2 (1:36) ---------------------------|
|                                                                       |
|                                                                       |
| E E E E E E E E   E E E E E E E E   E E E E E E E E   E E E E E E E E |
|-----------------|-----------------|-----------------|-----------------|
|---------4-----4-|-----------------|---------------7-|-----7-----------|
|-2---------------|---2-0---2---2/--|-5-------5---5---|---------5\------|
|-----------------|-----------------|-----------------|-----------------|

  E E E E E E E E   E E E E E E E E   E E E E E E E E   E E E E E E E E
|-----------------|-----------------|---------------6-|-----------------|
|---------4-----4-|-------------4/--|-7---------------|---------7-------|
|-2---------------|---2-0---2-------|---------5---5---|-----5-------5---|
|-----------------|-----------------|-----------------|-----------------|

  E E E E E E E E   E E E E E E E E   E E E E E E E E   E E E E E E E E
|-----------------|-----------------|-----------------|-----------------|
|---------4-----4-|-----------------|-----------------|-----------7-----|
|-2---------------|---2-0---2-0-2-5-|-0---0---0-----0-|-0-0---0-----5\--|
|-----------------|-----------------|-----------------|-----------------|

  E E E E E E E E   E E E E E E E E   E E E E E E E E   E E E E E E E E
|-----------------|-----------------|-----------------|-----------------|
|-----------------|-----------------|-----------------|-----------------|
|-----------------|-----------------|-----------------|-----------------|
|-2---2---2-----0-|-2-0-2---2-----0-|-2-0-2---2-----2-|-0-2-----2---4---|



|--------------------------- CHORUS 2 (1:58) ---------------------------|
|                                                                       |
|                                                                       |
| E E E E E E E E   E E E E E E E E   E E E E E E E E   E E E E E E E E |
|-----------------|-----------------|-----------------|-----------------|
|-----------------|-----------------|-----------------|-----------------|
|-----------------|-----------------|---------5---5---|-7---7---9---5---|
|-5---5---4---4---|-2---2---5---4---|-0---0-----------|-----------------|

  E E E E E E E E   E E E E E E E E   E E E E E E E E   E E E E E E E E
|-----------------|-----------------|-----------------|-----------------|
|-----------------|-----------------|-----------------|-----------------|
|-----------------|-----------------|---------5---5---|-7---7---9---5---|
|-5---5---4---4---|-2---2---5---4---|-0---0-----------|-----------------|

  E E E E E E E E   E E E E E E E E   E E E E E E E E   E E E E E E E E
|-----------------|-----------------|-----------------|-----------------|
|-----------------|-----------------|---------7---0---|-5---4-----------|
|-----------------|-----------------|-----------------|---------5---0---|
|-5---5---4---4---|-2---2---5---4---|-0---0-0---------|-----------------|



|------------------------- POST CHORUS 2 (2:15) ------------------------|
|                                                                       |
|                                                                       |
| E E E E E E E E   E E E E E E E E   E E E E E E E E   E E E E E E E E |
|-----------------|-----------------|-----------------|-----------------|
|-----------------|-----------------|-----------------|-----------------|
|-3---3---3---3h5-|-2---2---2---5---|-----------------|-----------------|
|-----------------|-----------------|-3---3---3---3---|-0---0---0---0---|

  E E E E E E E E   E E E E E E E E   E E E E E E E E   E E E E E E E E
|-----------------|-----------------|-----------------|-----------------|
|-----------------|-----------------|-----------------|-----------------|
|-3---3---3---3h5-|-2---2---2---5---|-----------------|-----------------|
|-----------------|-----------------|-3---3---3---3---|-0---0---0---0---|

  E E E E E E E E   E E E E E E E E   E E E E E E E E   E E E E E E E E
|-----------------|-----------------|-----------------|-----------------|
|-----------------|-----------------|-----------------|-----------------|
|-3---3---3---3h5-|-2---2---2---5---|-----------------|-----------------|
|-----------------|-----------------|-3---3---3---3-3-|-0---0---0---0---|

  E E E E E E E E   E E E E E E E E
|-----------------|-----------------|
|-----------------|-----------------|
|-3---3---3---3/--|-7---7---7---7\--|
|-----------------|-----------------|




|---------------------------- BRIDGE (2:35) ----------------------------|
|                                                                       |
|                                                                       |
| E E E E E E E E   E E E E E E E E   E E E E E E E E   E E E E E E E E |
|-----------------|-----------------|-----------------|-----------------|
|-----------------|-----------------|-----------------|-----------------|
|-2---2-----------|-0---0-----------|-----------------|-----------0-----|
|-----------------|-----------------|-2---2-2-2-0-2---|---2-2-0-2-------|

  E E E E E E E E   E E E E E E E E   E E E E E E E E   E E E E E E E E
|-----------------|-----------------|-----------------|-----------------|
|-----------------|-----------------|-----------------|-----------------|
|-2---2-----------|-0---0-----------|-----------------|-----------------|
|-----------------|-----------------|-2---2-2-2-0-2---|---2-2---2-2-2---|

  E E E E E E E E   E E E E E E E E   E E E E E E E E   E E E E E E E E
|-----------------|-----------------|-----------------|-----------------|
|-----------------|-----------------|-----------------|-----------------|
|-2---2-----------|-0---0-----------|-----------------|-----------------|
|-----------------|-----------------|-2---2-2-2-0-2---|---2-2-0-2-4-----|

  E E E E E E E E   E E E E E E E E   E E E E E E E E   E E E E E E E E
|-----------------|-----------------|-----------------|-----------------|
|-----------------|-----------------|-----------------|-----------------|
|-----------------|-5---5---5---5---|-----------------|-----------------|
|-5---5---5---5-5-|-----------------|-5---5---5---5-5-|-0---0---0-0-0-0-|

  E E E E E E E E   E E E E E E E E
|-----------------|-----------------|
|-----------------|-----------------|
|-----------------|-----------------|
|-5-----5-----5---|-5-4-4---4---4---|



|---------------------------- VERSE 3 (3:01) ---------------------------|
|                                                                       |
|                                                                       |
| E E E E E E E E   E E E E E E E E   E E E E E E E E   E E E E E E E E |
|-----------------|-----------------|-----------------|-----------------|
|-----------------|-----------------|-----------------|-----------------|
|-2-2-2-2-2-2-2-2-|-2-2-2-2-2-2-2-2-|-5-5-5-5-5-5-5-5-|-5-5-5-5-5-5-5-5-|
|-----------------|-----------------|-----------------|-----------------|

  E E E E E E E E   E E E E E E E E   E E E E E E E E   E E E E E E E E
|-----------------|-----------------|-----------------|-----------------|
|-----------------|-----------------|-----------------|-----------------|
|-2-2-2-2-2-2-2-2-|-2-2-2-2-2-2-2-2-|-5-5-5-5-5-5-5-5-|-5-5-5-5-5-5-5-5-|
|-----------------|-----------------|-----------------|-----------------|

  E E E E E E E E   E E E E E E E E   E E E E E E E E   E E E E E E E E
|-----------------|-----------------|-----------------|-----------------|
|---------4-4-----|-----4-4---------|-----------------|-----------------|
|-2-2-2-2-----2-0-|-2-2-----2-0-2-5-|-0-0-0-0-2-0-2-5-|-0-0-2-0-2-5-5\--|
|-----------------|-----------------|-----------------|-----------------|

  E E E E E E E E   E E E E E E E E   E E E E E E E E   E E E E E E E E
|-----------------|-----------------|-----------------|-----------------|
|-----------------|-----------------|-----------------|-----------------|
|-----------------|-----------------|-----------------|-----------------|
|-2---2---2---2-0-|-2-0-2---2---2-0-|-2-0-2---2-------|---------2-4-----|



|--------------------------- CHORUS 3 (3:23) ---------------------------|
|                                                                       |
|                                                                       |
| E E E E E E E E   E E E E E E E E   E E E E E E E E   E E E E E E E E |
|-----------------|-----------------|-----------------|-----------------|
|-----------------|--------/9---7---|-0---0---0---0---|-7---0---5---4---|
|-----------------|-----------------|-----------------|-----------------|
|-5---5---5---5---|-5---0-----------|-----------------|-----------------|

  E E E E E E E E   E E E E E E E E   E E E E E E E E   E E E E E E E E
|-----------------|-----------------|-----------------|-----------------|
|-----------------|--------/9---7---|-0---0---0---0---|-7---0---5---4---|
|-----------------|-----------------|-----------------|-----------------|
|-5---5---5---5---|-5---0-----------|-----------------|-----------------|

  E E E E E E E E   E E E E E E E E   E E E E E E E E   E E E E E E E E
|-----------------|-----------------|-----------------|-----------------|
|-----------------|--------/9---7---|-----7---5---5---|-4---------------|
|-----------------|-----------------|-----------------|-----7---5-0-2---|
|-5---5---5---5---|-5---0-0---------|-----------------|-----------------|



|------------------------- POST CHORUS 3 (3:40) ------------------------|
|                                                                       |
|                                                                       |
| E E E E E E E E   E E E E E E E E   E E E E E E E E   E E E E E E E E |
|-----------------|-----------------|-----------------|-----------------|
|-----------------|-----------------|-----------------|-----------------|
|-3---3---3---3h5-|-2---2---2---5---|-----------------|-----------------|
|-----------------|-----------------|-3---3---3---3---|-0---0---0---0---|


  E E E E E E E E   E E E E E E E E   E E E E E E E E   E E E E E E E E
|-----------------|-----------------|-----------------|-----------------|
|-----------------|-----------------|-----------------|-----------------|
|-3---3---3---3h5-|-2---2---2---5---|-----------------|-----------------|
|-----------------|-----------------|-3---3---3---3---|-0---0---0---0---|


  E E E E E E E E   E E E E E E E E   E E E E E E E E   E E E E E E E E
|-----------------|-----------------|-----------------|-----------------|
|-----------------|-----------------|-----------------|-----------------|
|-3---3---3---3-3-|-2/--10--12--10--|-----------------|-----------------|
|-----------------|-----------------|-3---3---3---3-3-|-0---0---0---0---|

|-----------------|-----------------|-----------------|-----------------|
|-----------------|-----------------|-----------------|-----------------|
|-3---3---3---3h5-|-2---2---2---5---|-----------------|-------------5~--|
|-----------------|-----------------|-3---3---3---3---|-0---0---5-------|



 END

            
            
Suggest correction
Creating personal tab
Creating personal tab
You can edit any tab online and save it as your Personal.

You can edit, replace or remove any tab part or add personal notes – all changes will be seen only by you.

Personal tabs can be accessed anytime from any device, even offline.
Learn more »
Give kudos to tab author, rate the tab!
1 2 3 4 5
comments
print report bad tab
guest
You may want to rate the tab now too:
select rating
Wanna post a correction for this tab? Suggest correction