Oops, an error
Loading. Please wait.
We have an official Hey Johnny Park tab made by UG professional guitarists. Check out the tab »
×
530 views 1 this week
no commentswrite comment
1 2 3 4 5
3 more votes to show rating
add to favorites
×
Save as Personal and add changes to this tab that will be seen only by you. Learn more ›
×
You can save this tab as Personal to edit and correct it or add notes. All changes will be seen only by you. Learn more »
launch autoscroll
font size
0
reset
how to read this tab
guitar tuner
backing track
0:00
0:00
edit
Autoscroll
slow
fast
+/-
esc
set tempo
stop
"HEY, JOHNNY PARK!"

by FOO FIGHTERS

From the album "THE COLOUR & THE SHAPE" (1997)


GUITAR TUNING = DROP D (DADGBe)

TEMPO = approx. 85bpm

TIME SIGNATURE = 4/4


Please Note:

There are at least 4 guitars in the song, (especially from the last verse onwards) 
but mainly they are just double tracking.


Guitar 1 = Lead guitar

Guitar 2 = Rhythm guitar





                             -=- Guitar 1 -=-


|----------------------------- INTRO (0:00) ----------------------------|
|                                                                       |
|                                                                       |
| E E E E E E E E   E E E E E E E E   E E E E E E E E   E E E E E E E E |
|-----------------|-----------------|-----------------|-----------------|
|-----------------|-----------------|-----7p0---------|-----7p0---------|
|-----DRUM--------|-----DRUM--------|---------7-6-----|---------7-6-----|
|-------INTRO-----|-------INTRO-----|/9---------------|-7---------------|
|-----------------|-----------------|-----------------|-----------------|
|-----------------|-----------------|-----------------|-----------------|

  E E E E E E E E   E E E E E E E E   E E E E E E E E   E E E E E E E E
|-----------------|-----------------|-----------------|-----------------|
|-------------7~--|-----------------|-----------------|-3---3-----------|
|-------7~----7~--|-----7-7-7-------|-----------------|-2---2-----------|
|-----6~------6~--|-----6-6-6-7-----|-9---9---12\-x-x-|-0---0---0/--x-x-|
|-7~--------7-7~--|-----7-7-7-9-----|-10--10--12\-x-x-|---------0/--x-x-|
|-----------------|-----------------|---------12\-x-x-|---------0/--x-x-|

  E E E E E E E E   E E E E E E E E   E E E E E E E E   E E E E E E E E
|-----------------|-----------------|-----------------|-----------------|
|-------------7~--|-----------------|-----7p0---------|-----7p0---------|
|-------7~----7~--|-----7-7-7-7-7-7-|---------7-6-----|---------7-6-----|
|-----6~------6~--|-----6-6-6-6-6-6-|/9---------------|-7---------------|
|-7~--------7-7~--|-----7-7-7-7-7-7-|-----------------|-----------------|
|-----------------|-----------------|-----------------|-----------------|

  E E E E E E E E   E E E E E E E E   E E E E E E E E   E E E E E E E E
|-----------------|-----------------|-----------------|-----------------|
|-------------7~--|-----------------|-----------------|-3---3---3---3---|
|-------7~----7~--|-----7-7-7-------|-----------------|-2---2---2---2---|
|-----6~------6~--|-----6-6-6-7-----|-9---9---12\-0-0-|-0---0---0---0---|
|-7~--------7-7~--|-----7-7-7-9-----|-10--10--12\-0-0-|-0---0---0---0---|
|-----------------|-----------------|---------12\-0-0-|-----------------|



|---------------------------- VERSE 1 (0:23) ---------------------------|
|                                                                       |
| Bm                                  D                                 |
|                                                                       |
| E E E E E E E E   E E E E E E E E   E E E E E E E E   E E E E E E E E |
|---------2~------|---------2---2-2-|---------2~------|-----2---2-------|
|---------3~------|---------3---3-3-|---------3~------|-----3---3---3-3-|
|---------4~------|---------4---4-4-|---------2~------|-----2---0h2-2-2-|
|---------4~------|---------4-------|-0---0---0~------|-----------------|
|-----------------|-----2-----------|-----------------|-----------------|
|-----------------|-----------------|-----------------|-----------------|


  Bm                                  D

  E E E E E E E E   E E E E E E E E   E E E E E E E E   E E E E E E E E
|---------2~------|---------2---2-2-|---------2~------|---------3p2-----|
|---------3~------|---------3---3-3-|---------3~------|-------------3---|
|---------4~------|---------4---4-4-|---------2~------|-----------------|
|---------4~------|---------4-------|-0---0---0~------|-----0-----------|
|-2~--------------|-----2-----------|-----------------|-----------------|
|-----------------|-----------------|-----------------|-----------------|


  Bm                Bsus2             A       Asus4     A

  E E E E E E E E   E E E E E E E E   E E E E E E E E   E E E E E E E E
|---------2-----2-|-2-2-2-------2-2-|-----------------|-----------------|
|---------3-----3-|-2-2-2-------2-2-|-2---2---3-3-3-3p|-2-2-2-----------|
|---------4-----4-|-4-4-4-------4-4-|-2---2---2-2-2-2-|-2-2-2-----------|
|---------4-----4-|-4-4-4-----------|-2---2---2-2-2-2-|-2-2-2-------0---|
|-2---2-----------|-----------------|-0---0-----------|-----0-------0---|
|-----------------|-----------------|-----------------|-------------0---|


  E

  E E E E E E E E   E E E E E E E E   E E E E E E E E   E E E E E E E E
|---------4-------|---------4-------|---------4-------|-----------------|
|---------0-------|---------0-------|---------0-------|-----------------|
|---------4-------|---------4-------|---------4-------|-----------------|
|-2---2---------0-|-2-0-2-------2-0-|-2-0-2-------2-0-|-2-0-2-3-2-0-----|
|-2---2---------0-|-2-0-2-------2-0-|-2-0-2-------2-0-|-2-0-2-3-2-0-----|
|-2---2---------0-|-2-0-2-------2-0-|-2-0-2-------2-0-|-2-0-2-3-2-0-----|


  Bm                                  D

  E E E E E E E E   E E E E E E E E   E E E E E E E E   E E E E E E E E
|---------2-------|---------2-------|---------2---2-2-|---2-2---2---2-2-|
|---------3---3-3-|---3-3---3---3-3-|---------3---3-3-|---3-3---3---3-3-|
|---------4---4-4-|---4-4---4---4-4-|---------2---2-2-|---2-2---0h2-2-2-|
|---------4---4-4-|---4-4---4---4-4-|-0---0---0-------|-----------------|
|-2---2-----------|---------2-------|-----------------|-----------------|
|-----------------|-----------------|-----------------|-----------------|


  Bm                                  D

  E E E E E E E E   E E E E E E E E   E E E E E E E E   E E E E E E E E
|---------2-------|---------2-------|---------2---2-2-|---------3p2-----|
|---------3---3-3-|---3-3---3---3-3-|---------3---3-3-|-------------3-3-|
|---------4---4-4-|---3-3---4---4-4-|---------2---2-2-|-----------------|
|---------4---4-4-|---4-4---4---4-4-|-0---0---0-------|-----0-----------|
|-2---2-----------|---------2-------|-----------------|-----------------|
|-----------------|-----------------|-----------------|-----------------|


  Bm                Bsus2             A       Asus4     A

  E E E E E E E E   E E E E E E E E   E E E E E E E E   E E E E E E E E
|---------2---2-2-|---2-2-----------|-0---0---0-------|-----0-----------|
|---------3---3-3-|---2-2-----------|-2---2---3-3-3-3p|-2-2-2-----------|
|---------4---4-4-|---4-4-----------|-2---2---2-2-2-2-|-2-2-2-----------|
|---------4---4-4-|---4-4-----------|-2---2---2-2-2-2-|-2-2-2-------0---|
|-2---2-----------|-----------------|-0---0-----------|-----0-------0---|
|-----------------|-------------0---|-----------------|-------------0---|


  E

  E E E E E E E E   E E E E E E E E   E E E E E E E E   E E E E E E E E
|---------4-------|---------4-------|---------4-------|-----------------|
|---------0-------|---------0-------|---------0-------|-----------------|
|---------4-------|---------4-------|---------4-------|-----------------|
|-2---2-------2-0-|-2-0-2-------2-0-|-2-0-2-------2-0-|-2-------2---4---|
|-2---2-------2-0-|-2-0-2-------2-0-|-2-0-2-------2-0-|-2-------2---4---|
|-2---2-------2-0-|-2-0-2-------2-0-|-2-0-2-------2-0-|-2-------2---4---|



|--------------------------- CHORUS 1 (1:07) ---------------------------|
|                                                                       |
|                                                                       |
| E E E E E E E E   E E E E E E E E   E E E E E E E E   E E E E E E E E |
|-----------------|-----------------|-0---0---x-x-0~--|-----0---0---0-0-|
|---------x-x-8~--|-----8---8---8-8-|-3---3---x-x-3~--|-----3---3---3-3-|
|-7---7---x-x-7~--|-----7---7---7-7-|-2---2---x-x-2~--|-----2---2---2-2-|
|-5---5---x-x-5~--|-----5---5---5-5-|-0---0---x-x-0~--|-----0---0---0-0-|
|-7---7---x-x-5~--|-----5---5---5-5-|-0---0---x-x-0~--|-----0---0---0-0-|
|-5---5---x-x-5~--|-----5---5---5-5-|-----------------|-----------------|

  E E E E E E E E   E E E E E E E E   E E E E E E E E   E E E E E E E E
|-----------------|-----------------|-0---0---x-x-2---|-2---2---2---2-2-|
|---------x-x-8---|-8---8---8---8-8-|-3---3---x-x-3---|-3---3---3---3-3-|
|-7---7---x-x-7---|-7---7---7---7-7-|-2---2---x-x-2---|-2---2---2---2-2-|
|-5---5---x-x-5---|-5---5---5---5-5-|-0---0---x-x-0---|-0---0---0---0-0-|
|-7---7---x-x-5---|-5---5---5---5-5-|-0---0---x-x-0---|-0---0---0---0-0-|
|-5---5---x-x-5---|-5---5---5---5-5-|-----------------|-----------------|

  E E E E E E E E   E E E E E E E E   E E E E E E E E   E E E E E E E E
|-----------------|-----------------|-0---0---x-x-0---|-0---0---0---0-0-|
|---------x-x-8---|-8---8---8---8-8-|-3---3---x-x-3---|-3---3---3---3-3-|
|-7---7---x-x-7---|-7---7---7---7-7-|-2---2---x-x-2---|-2---2---2---2-2-|
|-5---5---x-x-5---|-5---5---5---5-5-|-0---0---x-x-0---|-0---0---0---0-0-|
|-7---7---x-x-5---|-5---5---5---5-5-|-0---0---x-x-0---|-0---0---0---0-0-|
|-5---5---x-x-5---|-5---5---5---5-5-|-----------------|-----------------|



|-------------------------------- POST CHORUS 1 (1:24) ---------------------------------|
|                                                                                       |
|                                                                                       |
| E E E E E E E E   E E E E E E E E   E E E E E E E E   S S S S S S S S S S S S S S S S |
|-----------------|-----------------|-----------------|---------------------------------|
|-----------------|-----------------|-----------------|---------------------------------|
|-5---5---5---5---|-5-5-5---5-------|-5---5---5---5---|-11------11------11-/12\-11------|
|-5---5---5---5---|-5-5-5---5---0---|-3---3---3---3-0-|-x-------x-------x---x---x-------|
|-3---3---3---3---|-2-2-2---2---0---|-3---3---3---3-0-|-9-------9-------9--/10\-9-------|
|-----------------|-------------0---|-3---3---3---3-0-|-0-------0-------0-------0-------|
                                                        Extended Bar - Keep 4/4 timing!

  E E E E E E E E   E E E E E E E E   E E E E E E E E   E E E E E E E E
|-----------------|-----------------|-----------------|-----------------|
|-----------------|-----------------|-----------------|-3~--------------|
|-5---5---5---5---|-5---5---5-------|-5---5---5---5/7-|-2~--------------|
|-5---5---5---5---|-5---5---5---0---|-3---3---3---3/5-|-0~--------------|
|-3---3---3---3---|-2---2---2---0---|-3---3---3---3/5-|-0~--------------|
|-----------------|-------------0---|-3---3---3---3/5-|-0~--------------|



|---------------------------- VERSE 2 (1:36) ---------------------------|
|                                                                       |
| Bm                                  D                                 |
|                                                                       |
| E E E E E E E E   E E E E E E E E   E E E E E E E E   E E E E E E E E |
|---------2-------|---------2-------|---------2---2-2-|---2-2---2---2-2-|
|---------3---3-3-|---3-3---3---3-3-|---------3---3-3-|---3-3---3---3-3-|
|---------4---4-4-|---4-4---4---4-4-|---------2---2-2-|---2-2---0h2-2-2-|
|---------4---4-4-|---4-4---4---4-4-|-0---0---0-------|-----------------|
|-2---2-----------|---------2-------|-----------------|-----------------|
|-----------------|-----------------|-----------------|-----------------|


  Bm                                  D

  E E E E E E E E   E E E E E E E E   E E E E E E E E   E E E E E E E E
|---------2-------|---------2-------|---------2---2-2-|---------3p2-----|
|---------3---3-3-|---3-3---3---3-3-|---------3---3-3-|-------------3-3-|
|---------4---4-4-|---3-3---4---4-4-|---------2---2-2-|-----------------|
|---------4---4-4-|---4-4---4---4-4-|-0---0---0-------|-----0-----------|
|-2---2-----------|---------2-------|-----------------|-----------------|
|-----------------|-----------------|-----------------|-----------------|


  Bm                Bsus2             A       Asus4     A

  E E E E E E E E   E E E E E E E E   E E E E E E E E   E E E E E E E E
|---------2---2-2-|---2-2-----------|-0---0---0-------|-----0-----------|
|---------3---3-3-|---2-2-----------|-2---2---3-3-3-3p|-2-2-2-----------|
|---------4---4-4-|---4-4-----------|-2---2---2-2-2-2-|-2-2-2-----------|
|---------4---4-4-|---4-4-----------|-2---2---2-2-2-2-|-2-2-2-------0---|
|-2---2-----------|-----------------|-0---0-----------|-----0-------0---|
|-----------------|-------------0---|-----------------|-------------0---|


  E

  E E E E E E E E   E E E E E E E E   E E E E E E E E   E E E E E E E E
|---------4-------|---------4-------|---------4-------|-----------------|
|---------0-------|---------0-------|---------0-------|-----------------|
|---------4-------|---------4-------|---------4-------|-----------------|
|-2---2-------2-0-|-2-0-2-------2-0-|-2-0-2-------2-0-|-2-------2---4---|
|-2---2-------2-0-|-2-0-2-------2-0-|-2-0-2-------2-0-|-2-------2---4---|
|-2---2-------2-0-|-2-0-2-------2-0-|-2-0-2-------2-0-|-2-------2---4---|



|--------------------------- CHORUS 2 (1:58) ---------------------------|
|                                                                       |
|                                                                       |
| E E E E E E E E   E E E E E E E E   E E E E E E E E   E E E E E E E E |
|-----------------|-----------------|-0---0---x-x-0~--|-----0---0---0-0-|
|---------x-x-8~--|-----8---8~----8-|-3---3---x-x-3~--|-----3---3---3-3-|
|-7---7---x-x-7~--|-----7---7~----7-|-2---2---x-x-2~--|-----2---2---2-2-|
|-5---5---x-x-5~--|-----5---5~----5-|-0---0---x-x-0~--|-----0---0---0-0-|
|-7---7---x-x-5~--|-----5---5~----5-|-0---0---x-x-0~--|-----0---0---0-0-|
|-5---5---x-x-5~--|-----5---5~----5-|-----------------|-----------------|

  E E E E E E E E   E E E E E E E E   E E E E E E E E   E E E E E E E E
|-----------------|-----------------|-0---0---x-x-0---|-0---0---0---0-0-|
|---------x-x-8~--|-----8---8---8-8-|-3---3---x-x-3---|-3---3---3---3-3-|
|-7---7---x-x-7~--|-----7---7---7-7-|-2---2---x-x-2---|-2---2---2---2-2-|
|-5---5---x-x-5~--|-----5---5---5-5-|-0---0---x-x-0---|-0---0---0---0-0-|
|-7---7---x-x-5~--|-----5---5---5-5-|-0---0---x-x-0---|-0---0---0---0-0-|
|-5---5---x-x-5~--|-----5---5---5-5-|-----------------|-----------------|

  E E E E E E E E   E E E E E E E E   E E E E E E E E   E E E E E E E E
|-----------------|-----------------|-0---0---x-x-0~--|-----0---0---0-0-|
|---------x-x-8~--|-----8---8---8-8-|-3---3---x-x-3~--|-----3---3---3-3-|
|-7---7---x-x-7~--|-----7---7---7-7-|-2---2---x-x-2~--|-----2---2---2-2-|
|-5---5---x-x-5~--|-----5---5---5-5-|-0---0---x-x-0~--|-----0---0---0-0-|
|-7---7---x-x-5~--|-----5---5---5-5-|-0---0---x-x-0~--|-----0---0---0-0-|
|-5---5---x-x-5~--|-----5---5---5-5-|-----------------|-----------------|



|-------------------------------- POST CHORUS 2 (2:15) ---------------------------------|
|                                                                                       |
|                                                                                       |
| E E E E E E E E   E E E E E E E E   E E E E E E E E   S S S S S S S S S S S S S S S S |
|-----------------|-----------------|-----------------|---------------------------------|
|-----------------|-----------------|-----------------|---------------------------------|
|-5---5---5---5---|-5---5---5-------|-5---5---5-------|-11------11------11-/12\-11------|
|-5---5---5---5---|-5---5---5---0---|-3---3---3---0---|-x-------x-------x---x---x-------|
|-3---3---3---3---|-2---2---2---0---|-3---3---3---0---|-9-------9-------9--/10\-9-------|
|-----------------|-------------0---|-3---3---3---0---|-0-------0-------0-------0-------|

  E E E E E E E E   E E E E E E E E   E E E E E E E E   S S S S S S S S S S S S S S S S
|-----------------|-----------------|-----------------|---------------------------------|
|-----------------|-----------------|-----------------|---------------------------------|
|-5---5---5---5-5-|-5---5---5-------|-5---5---5-------|-11------11------11-/12\-11------|
|-5---5---5---5-5-|-5---5---5---0---|-3---3---3---0---|-x-------x-------x---x---x-------|
|-3---3---3---3-3-|-2---2---2---0---|-3---3---3---0---|-9-------9-------9--/10\-9-------|
|-----------------|-------------0---|-3---3---3---0---|-0-------0-------0-------0-------|

  E E E E E E E E   E E E E E E E E   E E E E E E E E   S S S S S S S S S S S S S S S S
|-----------------|-----------------|-----------------|---------------------------------|
|-----------------|-----------------|-----------------|---------------------------------|
|-5---5---5---5-5-|-5---5---5-------|-5---5---5-------|-11------11------11-/12\-11------|
|-5---5---5---5-5-|-5---5---5---0---|-3---3---3---0---|-x-------x-------x---x---x-------|
|-3---3---3---3-3-|-2---2---2---0---|-3---3---3---0---|-9-------9-------9--/10\-9-------|
|-----------------|-------------0---|-3---3---3---0---|-0-------0-------0-------0-------|

  E E E E E E E E   E E E E E E E E
|-----------------|-----------------|
|-----------------|-8---8-----------|
|-5---5---5---5---|-9---9-----------|
|-5---5---5---5---|-9---9-----------|
|-3---3---3---3---|-7---7-----------|
|-----------------|---------12\-----|



|---------------------------- BRIDGE (2:35) ----------------------------|
|                                                                       |
|                                                                       |
| E E E E E E E E   E E E E E E E E   E E E E E E E E   E E E E E E E E |
|-----------------|-----------------|-----------------|-----------------|
|-----7p0---------|-----7p0---------|-------------7---|-----7-7-7-------|
|---------7-6-----|---------7-6-----|-------7~----7---|-----7-7-7-------|
|-9---------------|-7---------------|-----6~------6---|-----6-6-6-------|
|-----------------|-----------------|-7~--------7-7---|-----7-7-7-0-----|
|-----------------|-----------------|-----------------|-----------------|

  E E E E E E E E   E E E E E E E E   E E E E E E E E   E E E E E E E E
|-----------------|-----------------|-----------------|-----------------|
|-----7p0---------|-----7p0---------|-----------------|-----------------|
|---------7-6-----|---------7-6-----|---------9-------|-------------9---|
|-9---------------|-7---------------|-----7h9---7-6~--|---6-7-6-7s9-----|
|-----------------|-----------------|-5h7-------------|-----------------|
|-----------------|-----------------|-----------------|-----------------|

  E E E E E E E E   E E E E E E E E   E E E E E E E E   E E E E E E E E
|-----------------|-----------------|-----------------|-----------------|
|-----7p0---------|-----7p0---------|-------------7---|-----7-7-7-------|
|---------7-6-----|---------7-6-----|-------7~----7---|-----7-7-7-------|
|-9---------------|-7---------------|-----6~------6---|-----6-6-6-7-----|
|-----------------|-----------------|-7~--------7-7---|-----7-7-7-9-----|
|-----------------|-----------------|-----------------|-----------------|

  E E E E E E E E   E E E E E E E E   E E E E E E E E   S S S S S S S S S S S S S S S S
|-----------------|-----------------|-----------------|---------------------------------|
|-8---8---8---8---|-7---7---7---7-7-|-8---8---8---8-8-|-7-------7-------10b-12r-10------|
|-7---7---7---7---|-7---7---7---7-7-|-7---7---7---7-7-|-7-------7-----------------------|
|-----------------|-----------------|-----------------|---------------------------------|
|-----------------|-----------------|-----------------|---------------------------------|
|-----------------|-----------------|-----------------|---------------------------------|
                                                        Extended Bar - Keep 4/4 timing!
  E E E E E E E E   E E E E E E E E
|-----------------|-----------------|
|-----------------|-----------------|
|-----------------|-----------------|
|-----------------|-----------------|
|-----------------|-----------------|
|-5~----5~----5~--|-4---4---4---4p0-|



|---------------------------- VERSE 3 (3:01) ---------------------------|
|                                                                       |
|                                                                       |
| E E E E E E E E   E E E E E E E E   E E E E E E E E   E E E E E E E E |
|-----------------|-----------------|-----------------|-----------------|
|-----------------|-----------------|-----------------|-----------------|
|-----------------|-----------------|-----------------|-----------------|
|-----------------|-----------------|-----------------|-----------------|
|-2~--------------|---------7b9r7---|-5~--------------|---------7b9r7---|
|-----------------|-----------------|-----------------|-----------------|

  E E E E E E E E   E E E E E E E E   E E E E E E E E   E E E E E E E E
|-----------------|-----------------|-----------------|-----------------|
|-----------------|-----------------|-----------------|-----------------|
|-----------------|-----------------|-----------------|-----------------|
|-----------------|-----------------|-----------------|-----------------|
|-2~--------------|---------7b9r7---|-5~--------------|---------7b9r7---|
|-----------------|-----------------|-----------------|-----------------|

  E E E E E E E E   E E E E E E E E   E E E E E E E E   E E E E E E E E
|-----------------|-----------------|-----------------|-----------------|
|-----------------|-----------------|-----------------|-----------------|
|-----------------|-----------------|-----------------|-----------------|
|-----------------|-----------------|-----------------|-----------------|
|-2~--------------|--------/5~------|-----------------|-----------------|
|-----------------|-----------------|-7~--------------|---------7b9r7---|

  E E E E E E E E   E E E E E E E E   E E E E E E E E   E E E E E E E E
|-----------------|-----------------|-------------x-x-|-x-x-x-x---------|
|-----------------|-----------------|-------------x-x-|-x-x-x-x---------|
|-----------------|-----------------|-------------x-x-|-x-x-x-x---------|
|-----------------|-----------------|-------------x-x-|-x-x-x-x-2-4~----|
|/7~------7~------|-7~------7~------|-7~------7~--x-x-|-x-x-x-x-2-4~----|
|-----------------|-----------------|-------------x-x-|-x-x-x-x-2-4~----|



|-------------------------------------------- CHORUS 3 (3:23) ------------------------------------------|
|                                                                                                       |
|                                                                                                       |
| E E E E E E E E   S S S S S S S S S S S S S S S S   E E E E E E E E   S S S S S S S S S S S S S S S S |
|-----------------|---------------------------------|-----------------|---------------------------------|
|-8---8---8---8---|---------------------------------|-7---7---7---7---|---------------------------------|
|-7---7---7---7---|-11------11------11-/12\-11------|-7---7---7---7---|-11------11------11-/12\-11------|
|-5---5---5---5---|-x-------x-------x---x---x-------|-7---7---7---7---|-x-------x-------x---x---x-------|
|-5---5---5---5---|-9-------9-------9--/10\-9-------|-5---5---5---5---|-9-------9-------9--/10\-9-------|
|-----------------|---------------------------------|-----------------|---------------------------------|

  E E E E E E E E   S S S S S S S S S S S S S S S S   E E E E E E E E   S S S S S S S S S S S S S S S S
|-----------------|---------------------------------|-----------------|---------------------------------|
|-8---8---8---8---|---------------------------------|-7---7---7---7---|---------------------------------|
|-7---7---7---7---|-11------11------11-/12\-11------|-7---7---7---7---|-11------11------11-/12\-11------|
|-5---5---5---5---|-x-------x-------x---x---x-------|-7---7---7---7---|-x-------x-------x---x---x-------|
|-5---5---5---5---|-9-------9-------9--/10\-9-------|-5---5---5---5---|-9-------9-------9--/10\-9-------|
|-----------------|---------------------------------|-----------------|---------------------------------|

  E E E E E E E E   S S S S S S S S S S S S S S S S   E E E E E E E E   S S S S S S S S S S S S S S S S
|-----------------|---------------------------------|-----------------|---------------------------------|
|-8---8---8---8---|---------------------------------|-7---7---7---7---|---------------------------------|
|-7---7---7---7---|-11------11------11-/12\-11------|-7---7---7---7---|-14------14------12------11------|
|-5---5---5---5---|-x-------x-------x---x---x-------|-7---7---7---7---|-x-------x-------x-------x-------|
|-5---5---5---5---|-9-------9-------9--/10\-9-------|-5---5---5---5---|-12------12------10------9-------|
|-----------------|---------------------------------|-----------------|---------------------------------|



|-------------------------------- POST CHORUS 3 (3:40) ---------------------------------|
|                                                                                       |
|                                                                                       |
| E E E E E E E E   E E E E E E E E   E E E E E E E E   S S S S S S S S S S S S S S S S |
|-----------------|-----------------|-----------------|---------------------------------|
|-----------------|-----------------|-----------------|---------------------------------|
|-17--17--17--17--|-16--16--16--16--|-14--14--14--14--|-19------19------14-/16\-14------|
|-x---x---x---x---|-x---x---x---x---|-x---x---x---x---|-x-------x-------x---x---x-------|
|-15--15--15--15--|-14--14--14--14--|-12--12--12--12--|-17------17------12-/14\-12------|
|-----------------|-----------------|-----------------|---------------------------------|

  E E E E E E E E   E E E E E E E E   E E E E E E E E   S S S S S S S S S S S S S S S S
|-----------------|-----------------|-----------------|---------------------------------|
|-----------------|-----------------|-----------------|---------------------------------|
|-17--17--17--17--|-16--16--16--16--|-14--14--14--14--|-19------19------14-/16\-14------|
|-x---x---x---x---|-x---x---x---x---|-x---x---x---x---|-x-------x-------x---x---x-------|
|-15--15--15--15--|-14--14--14--14--|-12--12--12--12--|-17------17------12-/14\-12------|
|-----------------|-----------------|-----------------|---------------------------------|

  E E E E E E E E   E E E E E E E E   E E E E E E E E   E E E E E E E E
|-----------------|-----------------|-----------------|---------------------------------|
|-----------------|-----------------|-----------------|---------------------------------|
|-17--17--17--17--|-16--16--16--16--|-14--14--14--14--|-19------19------14-/16\-14------|
|-x---x---x---x---|-x---x---x---x---|-x---x---x---x---|-x-------x-------x---x---x-------|
|-15--15--15--15--|-14--14--14--14--|-12--12--12--12--|-17------17------12-/14\-12------|
|-----------------|-----------------|-----------------|---------------------------------|

  E E E E E E E E   E E E E E E E E   E E E E E E E E   E E E E E E E E
|-----------------|-----------------|-----------------|-----------------|
|-----------------|-----------------|-----------------|-----------------|
|-17--17--17--17--|-16--16--16--16--|-14--14--14--16--|-19--19--19--19--|
|-x---x---x---x---|-x---x---x---x---|-x---x---x---x---|-16--16--17--16--|
|-15--15--15--15--|-14--14--14--14--|-12--12--12--14--|-17--17--17--17--|
|-----------------|-----------------|-----------------|-----------------|
                                                       Tempo slowing...


 END









                             -=- Guitar 2 -=-


|----------------------------- INTRO (0:00) ----------------------------|
|                                                                       |
|                                                                       |
| E E E E E E E E   E E E E E E E E   E E E E E E E E   E E E E E E E E |
|-----------------|-----------------|-----------------|-----------------|
|-----D---I-------|-----D---I-------|-----------------|-----------------|
|-----R---N-------|-----R---N-------|-4---4-----------|-2---2-----------|
|-----U---T-------|-----U---T-------|-4---4-----------|-2---2-----------|
|-----M---R-------|-----M---R-------|-2---2-----------|-0---0-----------|
|---------O-------|---------O-------|-----------------|-----------------|

  E E E E E E E E   E E E E E E E E   E E E E E E E E   E E E E E E E E
|-----------------|-----------------|-----------------|-----------------|
|-----------------|-----------------|-8---8-----------|-3---3-----------|
|-----------------|-----------------|-7---7-----------|-2---2-----------|
|-2---2-2---0-2~--|-----2-0-2-4~----|-5---5-----------|-0---0-----------|
|-2---2-2---0-2~--|-----2-0-2-4~----|-5---5-----------|-0---0-----------|
|-2---2-2---0-2~--|-----2-0-2-4~----|-5---5-----------|-0---0-----------|

  E E E E E E E E   E E E E E E E E   E E E E E E E E   E E E E E E E E
|-----------------|-----------------|-----------------|-----------------|
|-----------------|-----------------|-----------------|-----------------|
|-----------------|-----------------|-4---4-----------|-2---2-----------|
|-2---2-2---0-2~--|-----2-2-2-0~----|-4---4-----------|-2---2-----------|
|-2---2-2---0-2~--|-----2-2-2-0~----|-2---2-----------|-0---0-----------|
|-2---2-2---0-2~--|-----2-2-2-0~----|-----------------|-----------------|

  E E E E E E E E   E E E E E E E E   E E E E E E E E   E E E E E E E E
|-----------------|-----------------|-----------------|-----------------|
|-----------------|-----------------|-8---8-----------|-3---3---3---3---|
|-----------------|-----------------|-7---7-----------|-2---2---2---2---|
|-2---2-2---0-2~--|-----2-0-2-4~----|-5---5-----------|-0---0---0---0---|
|-2---2-2---0-2~--|-----2-0-2-4~----|-5---5-----------|-0---0---0---0---|
|-2---2-2---0-2~--|-----2-0-2-4~----|-5---5-----------|-0---0---0---0---|



|------------------- VERSE 1 (0:23) - Volume swells --------------------|
|                                                                       |
|                                                                       |
| E E E E E E E E   E E E E E E E E   E E E E E E E E   E E E E E E E E |
|-----------------|-----------------|-----------------|-----------------|
|-----------------|-----------------|-----------------|-----------------|
|-----------------|-----------------|-----------------|-----------------|
|-----------------|-----------------|-----------------|-----------------|
|(2)--------------|-----------------|(5)--------------|-----------------|
|-----------------|-----------------|-----------------|-----------------|

  E E E E E E E E   E E E E E E E E   E E E E E E E E   E E E E E E E E
|-----------------|-----------------|-----------------|-----------------|
|-----------------|-----------------|-----------------|-----------------|
|-----------------|-----------------|-----------------|-----------------|
|-----------------|-----------------|-----------------|-----------------|
|(2)--------------|-----------------|(5)--------------|-----------------|
|-----------------|-----------------|-----------------|-----------------|

  E E E E E E E E   E E E E E E E E   E E E E E E E E   E E E E E E E E
|-----------------|-----------------|-----------------|-----------------|
|-----------------|-----------------|-----------------|-----------------|
|-----------------|-----------------|-----------------|-----------------|
|-----------------|-----------------|-----------------|-----------------|
|(2)--------------|-----------------|(0)--------------|-----------------|
|-----------------|-----------------|-----------------|-----------------|

  E E E E E E E E   E E E E E E E E   E E E E E E E E   E E E E E E E E
|-----------------|-----------------|-----------------|-----------------|
|-----------------|-----------------|-----------------|-----------------|
|-----------------|-----------------|-----------------|-----------------|
|(2)--------------|-----------------|-----------------|-----------------|
|-----------------|-----------------|-----------------|-----------------|
|-----------------|-----------------|-----------------|-----------------|

  E E E E E E E E   E E E E E E E E   E E E E E E E E   E E E E E E E E
|-----------------|-----------------|-----------------|-----------------|
|-----------------|-----------------|-----------------|-----------------|
|-----------------|-----------------|-----------------|-----------------|
|-----------------|-----------------|-----------------|-----------------|
|(2)--------------|-----------------|(5)--------------|-----------------|
|-----------------|-----------------|-----------------|-----------------|

  E E E E E E E E   E E E E E E E E   E E E E E E E E   E E E E E E E E
|-----------------|-----------------|-----------------|-----------------|
|-----------------|-----------------|-----------------|-----------------|
|-----------------|-----------------|-----------------|-----------------|
|-----------------|-----------------|-----------------|-----------------|
|(2)--------------|-----------------|(5)--------------|-----------------|
|-----------------|-----------------|-----------------|-----------------|

  E E E E E E E E   E E E E E E E E   E E E E E E E E   E E E E E E E E
|-----------------|-----------------|-----------------|-----------------|
|-----------------|-----------------|-----------------|-----------------|
|-----------------|-----------------|-----------------|-----------------|
|-----------------|-----------------|-----------------|-----------------|
|(2)--------------|-----------------|(0)--------------|-----------------|
|-----------------|-----------------|-----------------|-----------------|

  E E E E E E E E   E E E E E E E E   E E E E E E E E   E E E E E E E E
|-----------------|-----------------|-----------------|-----------------|
|-----------------|-----------------|-----------------|-----------------|
|-----------------|-----------------|-----------------|-----------------|
|(2)--------------|-----------------|-----------------|-2/--------------|
|-----------------|-----------------|-----------------|-2/--------------|
|-----------------|-----------------|-----------------|-2/--------------|



|--------------------------- CHORUS 1 (1:07) ---------------------------|
|                                                                       |
|                                                                       |
| E E E E E E E E   E E E E E E E E   E E E E E E E E   E E E E E E E E |
|-----------------|-----------------|-----------------|-----------------|
|-8---8---x-x-8---|-8---8---8---8---|-7---7---x-x-7---|-7---7---7---7---|
|-7---7---x-x-7---|-7---7---7---7---|-7---7---x-x-7---|-7---7---7---7---|
|-5---5---x-x-5---|-5---5---5---5---|-7---7---x-x-7---|-7---7---7---7---|
|-5---5---x-x-5---|-5---5---5---5---|-5---5---x-x-5---|-5---5---5---5---|
|-5---5---x-x-5---|-5---5---5---5---|-0---0---x-x-0---|-0---0---0---0---|

  E E E E E E E E   E E E E E E E E   E E E E E E E E   E E E E E E E E
|-----------------|-----------------|-----------------|-----------------|
|-8---8---x-x-8---|-8---8---8---8-8-|-7---7---x-x-7---|-7-7-7---7---7---|
|-7---7---x-x-7---|-7---7---7---7-7-|-7---7---x-x-7---|-7-7-7---7---7---|
|-5---5---x-x-5---|-5---5---5---5-5-|-7---7---x-x-7---|-7-7-7---7---7---|
|-5---5---x-x-5---|-5---5---5---5-5-|-5---5---x-x-5---|-5-5-5---5---5---|
|-5---5---x-x-5---|-5---5---5---5-5-|-0---0---x-x-0---|-0-0-0---0---0---|

  E E E E E E E E   E E E E E E E E   E E E E E E E E   E E E E E E E E
|-----------------|-----------------|-----------------|-----------------|
|-8---8---x-x-8---|-8---8---8-8-8---|-7---7---7---7---|-7---7---7---7---|
|-7---7---x-x-7---|-7---7---7-7-7---|-7---7---7---7---|-7---7---7---7---|
|-5---5---x-x-5---|-5---5---5-5-5---|-7---7---7---7---|-7---7---7---7---|
|-5---5---x-x-5---|-5---5---5-5-5---|-5---5---5---5---|-5---5---5---5---|
|-5---5---x-x-5---|-5---5---5-5-5---|-0---0---0---0---|-0---0---0---0---|



|------------------------ POST CHORUS 1 (1:24) -------------------------|
|                                                                       |
|                                                                       |
| E E E E E E E E   E E E E E E E E   E E E E E E E E   E E E E E E E E |
|-----------------|-----------------|-----------------|-----------------|
|-----------------|-----------------|-----------------|-----------------|
|-5---5---5---5---|-5---5---5-------|-5---5---5---5/7-|-2---2---2---2---|
|-5---5---5---5---|-5---5---5---0---|-3---3---3---3/5-|-0---0---0---0---|
|-3---3---3---3---|-2---2---2---0---|-3---3---3---3/5-|-0---0---0---0---|
|-----------------|-------------0---|-3---3---3---3/5-|-0---0---0---0---|

  E E E E E E E E   E E E E E E E E   E E E E E E E E   E E E E E E E E
|-----------------|-----------------|-----------------|-----------------|
|-----------------|-----------------|-----------------|-3~--------------|
|-5---5---5---5-5-|-5---5---5-------|-5---5---5---5---|-2~--------------|
|-5---5---5---5-5-|-5---5---5---0---|-3---3---3---3---|-0~--------------|
|-3---3---3---3-3-|-2---2---2---0---|-3---3---3---3---|-0~--------------|
|-----------------|-------------0---|-3---3---3---3---|-0~--------------|



|---------------------------- VERSE 2 (1:36) ---------------------------|
|                                                                       |
|                                                                       |
| E E E E E E E E   E E E E E E E E   E E E E E E E E   E E E E E E E E |
|-----------------|-----------------|-----------------|-----------------|
|-----------------|-----------------|-----------------|-----------------|
|-----------------|-----------------|-----------------|-----------------|
|(2)--------------|-----------------|-----------------|-----------------|
|-----------------|-----------------|-----------------|-----------------|
|-----------------|-----------------|-----------------|-----------------|

  E E E E E E E E   E E E E E E E E   E E E E E E E E   E E E E E E E E
|-----------------|-----------------|-----------------|-----------------|
|-----------------|-----------------|-----------------|-----------------|
|-----------------|-----------------|-----------------|-----------------|
|-----------------|-----------------|-----------------|-----------------|
|(2)--------------|-----------------|(5)--------------|-----------------|
|-----------------|-----------------|-----------------|-----------------|

  E E E E E E E E   E E E E E E E E   E E E E E E E E   E E E E E E E E
|-----------------|-----------------|-----------------|-----------------|
|-----------------|-----------------|-----------------|-----------------|
|-----------------|-----------------|-----------------|-----------------|
|-----------------|-----------------|-----------------|-----------------|
|(2)--------------|-----------------|(5)--------------|-----------------|
|-----------------|-----------------|-----------------|-----------------|

  E E E E E E E E   E E E E E E E E   E E E E E E E E   E E E E E E E E
|-----------------|-----------------|-----------------|-----------------|
|-----------------|-----------------|-----------------|-----------------|
|-----------------|-----------------|-----------------|-----------------|
|-----------------|-----------------|-----------------|-----------------|
|(2)--------------|-----------------|(0)--------------|-----------------|
|-----------------|-----------------|-----------------|-----------------|

  E E E E E E E E   E E E E E E E E   E E E E E E E E   E E E E E E E E
|-----------------|-----------------|-----------------|-----------------|
|-----------------|-----------------|-----------------|-----------------|
|-----------------|-----------------|-----------------|-----------------|
|(2)--------------|-----------------|-----------------|-2/--------------|
|-----------------|-----------------|-----------------|-2/--------------|
|-----------------|-----------------|-----------------|-2/--------------|



|--------------------------- CHORUS 2 (1:58) ---------------------------|
|                                                                       |
|                                                                       |
| E E E E E E E E   E E E E E E E E   E E E E E E E E   E E E E E E E E |
|-----------------|-----------------|-----------------|-----------------|
|-8---8---x-x-8---|-8---8---8---8-8-|-7---7---x-x-7---|-7---7---7---7---|
|-7---7---x-x-7---|-7---7---7---7-7-|-7---7---x-x-7---|-7---7---7---7---|
|-5---5---x-x-5---|-5---5---5---5-5-|-7---7---x-x-7---|-7---7---7---7---|
|-5---5---x-x-5---|-5---5---5---5-5-|-5---5---x-x-5---|-5---5---5---5---|
|-5---5---x-x-5---|-5---5---5---5-5-|-0---0---x-x-0---|-0---0---0---0---|

  E E E E E E E E   E E E E E E E E   E E E E E E E E   E E E E E E E E
|-----------------|-----------------|-----------------|-----------------|
|-8---8---x-x-8---|-8---8---8---8-8-|-7---7---x-x-7---|-7-7-7---7---7---|
|-7---7---x-x-7---|-7---7---7---7-7-|-7---7---x-x-7---|-7-7-7---7---7---|
|-5---5---x-x-5---|-5---5---5---5-5-|-7---7---x-x-7---|-7-7-7---7---7---|
|-5---5---x-x-5---|-5---5---5---5-5-|-5---5---x-x-5---|-5-5-5---5---5---|
|-5---5---x-x-5---|-5---5---5---5-5-|-0---0---x-x-0---|-0-0-0---0---0---|

  E E E E E E E E   E E E E E E E E   E E E E E E E E   E E E E E E E E
|-----------------|-----------------|-----------------|-----------------|
|-8---8---x-x-8---|-8---8---8---8-8-|-7---7---x-x-7---|-7---7---7---7---|
|-7---7---x-x-7---|-7---7---7---7-7-|-7---7---x-x-7---|-7---7---7---7---|
|-5---5---x-x-5---|-5---5---5---5-5-|-7---7---x-x-7---|-7---7---7---7---|
|-5---5---x-x-5---|-5---5---5---5-5-|-5---5---x-x-5---|-5---5---5---5---|
|-5---5---x-x-5---|-5---5---5---5-5-|-0---0---x-x-0---|-0---0---0---0---|



|------------------------ POST CHORUS 2 (2:15) -------------------------|
|                                                                       |
|                                                                       |
| E E E E E E E E   E E E E E E E E   E E E E E E E E   E E E E E E E E |
|-----------------|-----------------|-----------------|-----------------|
|-----------------|-----------------|-----------------|-----------------|
|-5---5---5---5---|-5---5---5-------|-5---5---5---5/7-|-2---2---2---2---|
|-5---5---5---5---|-5---5---5---0---|-3---3---3---3/5-|-0---0---0---0---|
|-3---3---3---3---|-2---2---2---0---|-3---3---3---3/5-|-0---0---0---0---|
|-----------------|-------------0---|-3---3---3---3/5-|-0---0---0---0---|

  E E E E E E E E   E E E E E E E E   E E E E E E E E   E E E E E E E E
|-----------------|-----------------|-----------------|-----------------|
|-----------------|-----------------|-----------------|-----------------|
|-5---5---5---5---|-5---5---5-------|-5---5---5---5/7-|-2---2---2---2---|
|-5---5---5---5---|-5---5---5---0---|-3---3---3---3/5-|-0---0---0---0---|
|-3---3---3---3---|-2---2---2---0---|-3---3---3---3/5-|-0---0---0---0---|
|-----------------|-------------0---|-3---3---3---3/5-|-0---0---0---0---|

  E E E E E E E E   E E E E E E E E   E E E E E E E E   E E E E E E E E
|-----------------|-----------------|-----------------|-----------------|
|-----------------|-----------------|-----------------|-----------------|
|-5---5---5---5---|-5---5---5-------|-5---5---5---5/7-|-2---2---2---2---|
|-5---5---5---5---|-5---5---5---0---|-3---3---3---3/5-|-0---0---0---0---|
|-3---3---3---3---|-2---2---2---0---|-3---3---3---3/5-|-0---0---0---0---|
|-----------------|-------------0---|-3---3---3---3/5-|-0---0---0---0---|

  E E E E E E E E   E E E E E E E E
|-----------------|-----------------|
|-----------------|-8---8---8---8---|
|-5---5---5---5---|-9---9---9---9---|
|-5---5---5---5---|-9---9---9---9---|
|-3---3---3---3---|-7---7---7---7---|
|-----------------|-----------------|



|---------------------------- BRIDGE (2:35) ----------------------------|
|                                                                       |
|                                                                       |
| E E E E E E E E   E E E E E E E E   E E E E E E E E   E E E E E E E E |
|-----------------|-----------------|-----------------|-----------------|
|-----------------|-----------------|-----------------|-----------------|
|-4---4-----------|-2---2-----------|-----------------|-----------2-----|
|-4---4-----------|-2---2-----------|-2---0-2---0-2---|-----2-0-2-2-----|
|-2---2-----------|-0---0-----------|-2---0-2---0-2---|-----2-0-2-0-----|
|-----------------|-----------------|-2---0-2---0-2---|-----2-0-2-------|

  E E E E E E E E   E E E E E E E E   E E E E E E E E   E E E E E E E E
|-----------------|-----------------|-----------------|-----------------|
|-----------------|-----------------|-----------------|-----------------|
|-4---4-----------|-2---2-----------|-----------------|-----------------|
|-4---4-----------|-2---2-----------|-2---0-2---0-2---|---0-2-0-2-0-----|
|-2---2-----------|-0---0-----------|-2---0-2---0-2---|---0-2-0-2-0-----|
|-----------------|-----------------|-2---0-2---0-2---|---0-2-0-2-0-----|

  E E E E E E E E   E E E E E E E E   E E E E E E E E   E E E E E E E E
|-----------------|-----------------|-----------------|-----------------|
|-----------------|-----------------|-----------------|-----------------|
|-4---4-----------|-2---2-----------|-----------------|-----------------|
|-4---4-----------|-2---2-----------|-2---0-2---0-2---|-----2-0-2-4-----|
|-2---2-----------|-0---0-----------|-2---0-2---0-2---|-----2-0-2-4-----|
|-----------------|-----------------|-2---0-2---0-2---|-----2-0-2-4-----|

  E E E E E E E E   E E E E E E E E   E E E E E E E E   S S S S S S S S S S S S S S S S
|-----------------|-----------------|-----------------|---------------------------------|
|-----------------|-----------------|-----------------|---------------------------------|
|-7---7---7---7-7-|-7---7---7---7-7-|-7---7---7---7-7-|-11------11------11-/12\-11------|
|-5---5---5---5-5-|-7---7---7---7-7-|-5---5---5---5-5-|-x-------x-------x---x---x-------|
|-5---5---5---5-5-|-5---5---5---5-5-|-5---5---5---5-5-|-9-------9-------9--/10\-9-------|
|-5---5---5---5-5-|-0---0---0---0-0-|-5---5---5---5-5-|-0-------0-------0-------0-------|

  E E E E E E E E   E E E E E E E E
|-----------------|-----------------|
|-----------------|-----------------|
|-----------------|-----------------|
|-5-5-5-5-5-5-5-5-|-5\4-4-4-4-4-4-0-|   ! = accent
|-5-5-5-5-5-5-5-5-|-5\4-4-4-4-4-4-0-|
|-5-5-5-5-5-5-5-5-|-5\4-4-4-4-4-4-0-|
  !     !     !     !



|---------------------------- VERSE 3 (3:01) ---------------------------|
|                                                                       |
|                                                                       |
| E E E E E E E E   E E E E E E E E   E E E E E E E E   E E E E E E E E |
|-----------------|-----------------|---------2-------|---------2-------|
|---------3-------|---------3-------|---------3-------|---------3-------|
|-4---4---4-----4-|-----4---4---4---|-2-------2-----2-|-----2---2-------|
|-4---4---4-----4-|-----4---4---4---|-0---0---0---0-0-|---0-0---0---0-0-|
|-2---2---2---0-2-|---0-2---2---2-0-|-0---0---0---0-0-|---0-0---0---0-0-|
|-----------------|-----------------|-0---0---0---0-0-|---0-0---0---0-0-|

  E E E E E E E E   E E E E E E E E   E E E E E E E E   E E E E E E E E
|-----------------|-----------------|---------2-------|---------2-------|
|---------3-------|---------3-------|---------3-------|---------3-------|
|-4---4---4-----4-|-----4---4---4---|-2-------2-----2-|-----2---2-------|
|-4---4---4-----4-|-----4---4---4---|-0---0---0---0-0-|---0-0---0---0-0-|
|-2---2---2---0-2-|---0-2---2---2-0-|-0---0---0---0-0-|---0-0---0---0-0-|
|-----------------|-----------------|-0---0---0---0-0-|---0-0---0---0-0-|

  E E E E E E E E   E E E E E E E E   E E E E E E E E   E E E E E E E E
|-----------------|-----------------|-----------------|-----------------|
|---------3-------|---------3-------|---------2-------|-2-2-2-2-2-2-2-2-|
|-4---4---4-----4-|-----4---4---4-4-|-2---2---2---2-2-|-2-2-2-2-2-2-2-2-|
|-4---4---4-----4-|-----4---4---4-4-|-2---2---2---2-2-|-2-2-2-2-2-2-2-2-|
|-2---2---2---0-2-|---0-2---2---2-2-|-0---0---0---0-0-|-0-0-0-0-0-0-0-0-|
|-----------------|-----------------|-----------------|-----------------|

  E E E E E E E E   E E E E E E E E   E E E E E E E E   E E E E E E E E
|-----------------|-----------------|-------------x-x-|-x-x-x-x---------|
|---------7-------|---------7-------|---------7---x-x-|-x-x-x-x---------|
|---------7-------|---------7-------|---------7---x-x-|-x-x-x-x---------|
|---------6-------|---------6-------|---------6---x-x-|-x-x-x-x-2-4-----|
|---------7-------|---------7-------|---------7---x-x-|-x-x-x-x-2-4-----|
|-2---2-------2-0-|-2-0-2-------2-0-|-2-0-2-------x-x-|-x-x-x-x-2-4-----|



|--------------------------- CHORUS 3 (3:23) ---------------------------|
|                                                                       |
|                                                                       |
| E E E E E E E E   E E E E E E E E   E E E E E E E E   E E E E E E E E |
|-----------------|-----------------|-2---2---2---2-2-|-2---2---2-2-2---|
|-8---8---8---8---|-8---8---8---8-8-|-3---3---3---3-3-|-3---3---3-3-3---|
|-7---7---7---7---|-7---7---7---7-7-|-2---2---2---2-2-|-2---2---2-2-2---|
|-5---5---5---5---|-5---5---5---5-5-|-0---0---0---0-0-|-0---0---0-0-0---|
|-5---5---5---5---|-5---5---5---5-5-|-0---0---0---0-0-|-0---0---0-0-0---|
|-5---5---5---5---|-5---5---5---5-5-|-0---0---0---0-0-|-0---0---0-0-0---|

  E E E E E E E E   E E E E E E E E   E E E E E E E E   E E E E E E E E
|-----------------|-----------------|-2---2---2---2-2-|-2---2---2---2---|
|-8---8---8---8-8-|-8---8---8---8-8-|-3---3---3---3-3-|-3---3---3---3---|
|-7---7---7---7-7-|-7---7---7---7-7-|-2---2---2---2-2-|-2---2---2---2---|
|-5---5---5---5-5-|-5---5---5---5-5-|-0---0---0---0-0-|-0---0---0---0---|
|-5---5---5---5-5-|-5---5---5---5-5-|-0---0---0---0-0-|-0---0---0---0---|
|-5---5---5---5-5-|-5---5---5---5-5-|-0---0---0---0-0-|-0---0---0---0---|

  E E E E E E E E   E E E E E E E E   E E E E E E E E   E E E E E E E E
|-----------------|-----------------|-2---2---2---2-2-|-2---2---2---2---|
|-8---8---8---8-8-|-8---8---8---8-8-|-3---3---3---3-3-|-3---3---3---3---|
|-7---7---7---7-7-|-7---7---7---7-7-|-2---2---2---2-2-|-2---2---2---2---|
|-5---5---5---5-5-|-5---5---5---5-5-|-0---0---0---0-0-|-0---0---0---0---|
|-5---5---5---5-5-|-5---5---5---5-5-|-0---0---0---0-0-|-0---0---0---0---|
|-5---5---5---5-5-|-5---5---5---5-5-|-0---0---0---0-0-|-0---0---0---0---|



|--------------------------------- POST CHORUS 3 (3:40) --------------------------------|
|                                                                                       |
|                                                                                       |
| E E E E E E E E   E E E E E E E E   E E E E E E E E   S S S S S S S S S S S S S S S S |
|-----------------|-----------------|-----------------|---------------------------------|
|-----------------|-----------------|-----------------|---------------------------------|
|-5---5---5---5---|-5---5---5-------|-5---5---5---5/--|-11------11------11-/12\-11------|
|-5---5---5---5---|-5---5---5---0---|-3---3---3---3/--|-x-------x-------x---x---x-------|
|-3---3---3---3---|-2---2---2---0---|-3---3---3---3/--|-9-------9-------9--/10\-9-------|
|-----------------|-------------0---|-3---3---3---3/--|-0-------0-------0-------0-------|

  E E E E E E E E   E E E E E E E E   E E E E E E E E   S S S S S S S S S S S S S S S S
|-----------------|-----------------|-----------------|---------------------------------|
|-----------------|-----------------|-----------------|---------------------------------|
|-5---5---5---5-5-|-5---5---5-------|-5---5---5---5/--|-11------11------11-/12\-11------|
|-5---5---5---5-5-|-5---5---5---0---|-3---3---3---3/--|-x-------x-------x---x---x-------|
|-3---3---3---3-3-|-2---2---2---0---|-3---3---3---3/--|-9-------9-------9--/10\-9-------|
|-----------------|-------------0---|-3---3---3---3/--|-0-------0-------0-------0-------|

  E E E E E E E E   E E E E E E E E   E E E E E E E E   S S S S S S S S S S S S S S S S
|-----------------|-----------------|-----------------|---------------------------------|
|-----------------|-----------------|-----------------|---------------------------------|
|-5---5---5---5---|-5---5---5-------|-5---5---5---5/--|-11------11------11-/12\-11------|
|-5---5---5---5---|-5---5---5---0---|-3---3---3---3/--|-x-------x-------x---x---x-------|
|-3---3---3---3---|-2---2---2---0---|-3---3---3---3/--|-9-------9-------9--/10\-9-------|
|-----------------|-------------0---|-3---3---3---3/--|-0-------0-------0-------0-------|

  E E E E E E E E   E E E E E E E E   E E E E E E E E   E E E E E E E E
|-----------------|-----------------|-----------------|-----------------|
|-----------------|-----------------|-----------------|-7---7---8---7~--|
|-5---5---5---5-5-|-5---5---5-------|-5---5---5-------|-7---7---7---7~--|
|-5---5---5---5-5-|-5---5---5---0---|-3---3---3---0---|-7---7---7---7~--|
|-3---3---3---3-3-|-2---2---2---0---|-3---3---3---0---|-0---0---0---0~--|
|-----------------|-------------0---|-3---3---3---0---|-0---0---0---0~--|
                                                       Tempo slowing...


 END
Suggest correction
Creating personal tab
Creating personal tab
You can edit any tab online and save it as your Personal.

You can edit, replace or remove any tab part or add personal notes – all changes will be seen only by you.

Personal tabs can be accessed anytime from any device, even offline.
Learn more »
Give kudos to tab author, rate the tab!
1 2 3 4 5
comments
print report bad tab
guest
You may want to rate the tab now too:
select rating
Wanna post a correction for this tab? Suggest correction