Oops, an error
Loading. Please wait.

I Should Have Known Tab

version 1
version 1

Whole song

Interactive

36,812 views 21 this week
no commentswrite comment
1 2 3 4 5
x 4
add to favorites
launch autoscroll
font size
0
reset
how to read this tab
guitar tuner
Autoscroll
slow
fast
+/-
esc
set tempo
stop
Help us to improve Ultimate-Guitar.com Take our survey!
×
Author
Difficulty
intermediate
I Should Have Known
Foo Fighters
Wasting Light

Tabbed by ear, should be fairly accurate.

Intro             x4
e------------------:
B------------------:
G--------0---------:
D------------0-----:
A----1-----------1-:
E--3---3-------3---:

Verse
e-------------------------------------------------------------------|
B-------------------------------------------------------------------|
G--------0---------------0---------------2---------------2----------|
D------------0---------------0-------1-------1---1---1-------1---1--|
A----1-----------1---1-----------1-3---3-------3---3---3-------3----|
E--3---3-------3---3---3-------3------------------------------------|

                                                                   x2
e-------------------------------------------------------------------:
B-------------------------------------------------------------------:
G--------2---------------3---------------3---------------2h0------0-:
D----1-------1---1---0-------0---0---1-------1---1------------3-----:
A--0---0-------0---1---1-------1---3---3-------3-----3----------3---:
E--------------------------------------------------1---1------------:

(Guitar 2)
e--3-------------------------------8--------------------------------|
B--3-------------------------------8--------------------------------|
G--3-------------------------------8--------------------------------|
D--5-------------------------------10-------------------------------|
A-------------------------------------------------------------------|
E-------------------------------------------------------------------|

                                                                   x2
e--8---------------10--------------8---------------1----------------:
B--6---------------8---------------8---------------1----------------:
G--5---------------7---------------8---------------2----------------:
D----------------------------------10--------------3----------------:
A-------------------------------------------------------------------:
E-------------------------------------------------------------------:

Pre-Chorus                                                         x3
e--------------------------------1----------------------------------:
B----------------1-------3-----1------------------------------------:
G--------0-----2-------3-----2-----------0---------------0----------:
D------0-----1-------0-----3---------2-------2---2---2-------2---2--:
A----1-----0-------1---------------3---3-------3---3---3-------3----:
E--3----------------------------------------------------------------:

Chorus                            x2
e----------------------------------:
B--------8---------------3---------:
G--------8---------------3---------:
D----8---8---8---8-------5---------:
A--6---6-------6-----5-------5---5-:
E------------------3---3-------3---:

e-------------------------------------------------|
B-------------------------------------------------|
G---------10-----------------5---5-5-5-5-5-5-5-5--|
D----10---10---10---10---5---5---5-5-5-5-5-5-5-5--|
A--8----8---------8----3---3-----3-3-3-3-3-3-3-3--|
E-------------------------------------------------|

Breakdown

(Guitar 1)
   G5  A5  Bb5  F5   C5
e-------------------------|
B-------------------------|
G---------------10--------|
D--5---7---8----10---10---|
A--5---7---8----8----10---|
E--3---5---6---------8----|

(Guitar 2)
e--3-----------1----------|
B--3---1---3---1-----1----|
G--3---2---3---2-----0----|
D--5---1---0---3-----2----|
A--5---0---1---3-----3----|
E--3-----------1----------|


Last Chorus

(Guitar 1)
   Eb5  G5  Eb5  G5  F5   C5
e-----------------------------|
B-----------------------------|
G--8--------8--------10---5---|
D--8----5---8----5---10---5---|
A--6----5---6----5---8----3---|
E-------3--------3------------|

(Guitar 2)
e-------3--------3------------|
B--8----3---8----3---10---5---|
G--8----3---8----3---10---5---|
D--8----5---8----5---10---5---|
A--6----5---6----5---8----3---|
E-------3--------3------------|
Suggest correction
comments
print report bad tab
guest
You may want to rate the tab now too:
select rating
Wanna post a correction for this tab? Suggest correction