Oops, an error
Loading. Please wait.

In Your Honor Disc 1 Tab

40,097 views 3 this week
4 commentsread comments
1 2 3 4 5
excellent!
x 11
add to favorites
launch autoscroll
font size
0
reset
how to read this tab
guitar tuner
Autoscroll
slow
fast
+/-
esc
set tempo
stop
Help us to improve Ultimate-Guitar.com Take our survey!
×
Author
There was no full album tab for this awesome CD so I am going to compile the best rated
ones off the site. I take no credit for the tabs and I will leave names on them. Oh, and
I will submit the two CDs seperate

TRACK LIST

1. In Your Honor
2. No Way Back
3. Best of You
4. DOA
5. Hell
6. The Last Song
7. Free Me
8. Resolve
9. The Deepest Blues Are Back
10. End Over End

In Your Honor TABBED BY Thepluginbaby

Standard Tuning (EADGBE)

(intro)-High gain a bit of reverb, high treble and bass, mid medium. opening E chord 
for a while.  Pickscrapes lead to the main riff, which is a lot like Radiohead's 'sulk'.
E---------------------------------------------------------------------------|
B---------------------------------------------------------------------------|
G-1------------------9999--8888--4444---------------------------------------|
D-2------pickscrape--xxxx--xxxx--xxxx---------------------------------------|
A-2-------////////---7777--6666--2222---------------------------------------|
E-0-------------------------------------------------------------------------|

(verse)-"Can you hear me?"  repeat until chorus
e----------------------------------------------------------------------------|
b----------------------------------------------------------------------------|
g-1111--9999--8888--4444-----------------------------------------------------|
d-2222--xxxx--xxxx--xxxx-----------------------------------------------------|
a-2222--7777--6666--2222-----------------------------------------------------|
e-0000-----------------------------------------------------------------------|

(chorus) "Mine is yours and yours is mine"

e---------------------------------------------------------------------------|
b---------------------------------------------------------------------------|
g--99999999999999999999999999999999999999999--------------------------------|
d--xxxxxxxxxxxxxxxxxxxxxxxxxxxxxxxxxxxxxxxxx--------------------------------|
a--77777777777777777777777777777777777777777--------------------------------|
e---------------------------------------------------------------------------|

"There is no Divide"rpt"I will Sacrifice"
e----------------------------------------------------------------------------|
b----------------------------------------------------------------------------|
g--11111111111111111111111111111111111111111---------------------------------|
d--x-x-x-x-x-x-x-x-x-x-x-x-x-x-x-x-x-x-x-x-x---------------------------------|
a--9-9-9-9-9-9-9-9-9-9-9-9-9-9-9-9-9-9-9-9-9---------------------------------|
e----------------------------------------------------------------------------|

"In Your Honour I would Die Tonight"
e---------------------------------------------------------------------------|
b---------------------------------------------------------------------------|
g---(18)181818181818--(16)16161616161616--(15)15151515151515----------------|
d---(x-)x-x-x-x-x-x---(x-)x-x-x-x-x-x-x---(x-)x-x-x-x-x-x-x-----------------|
a---(16)161616161616--(14)14141414141414--(13)13131313131313----------------|
e---------------------------------------------------------------------------|

Repeat chorus
" For You to feel alive!"
Play main riff (see verse)

(spunkadelic bit) all goes a bit mental, not sure if this is correct.  Bassically you 
on playing it until theres a QOTSA style halt and then Dave screams back in and you play 
bit as fast as you can.
e---------------------------------------------------------------------------|
b---------------------------------------------------------------------------|
g-9-------------------8--------------------8-9------------------------------|
d-9-------------------8--------------------8-9------------------------------|
a-7-------------------6--------------------6-7------------------------------|
e-0-0h7p0h7-0h7p0h7p0--0h7p0h7p0-0h7p0h7p0----------------------------------|

=============================================================================

No Way Back Tab by Foo Fighters, www.Ultimate-Guitar.Com
No Way Back tab by Foo Fighters                   

Tabbed By: Alex Miller on June 28th, 2005
E-Mail Address: Ram13093@aol.com

Tuning: Standard

Intro:
e|-2----------------------------|
B|-3----------------------------|
G|-2-1--------------------------| Play a few times.
D|---2---------9----------9-----|
A|---2----9h11---11--9h11---11--|
E|------------------------------|

Verse:
e|---------------------|
B|---------------------|
G|-8-9-8-6-8-9-11-13---|
D|-x-x-x-x-x-x-x--x----| Steadily strum an A chord under this.
A|-6-7-6-4-6-7-9--11---|
E|---------------------|

Chorus:
e|-2-------|
B|-3-2-----|
G|-2-2-1-4-| Play Twice
D|---2-2-4-|
A|-----2-2-|
E|---------|

Then play an A chord once.

Then go to this:
e|-------2----|
B|-------3----|
G|-------2-1--|
D|-5-5-2---2--|
A|-5-5-2---2--|
E|-3-2-0------|

Solo:
e|-----------------------------------------------------------|
B|-----------------------------------------------------------|
G|-----------------------------------------------------------|
D|-----------------------------------------------------------|
A|-6p0-7p0-9p0-11p0-9p0-7p0-6/4-6p0-7p0-9p0-11p0-9p0-7p0-6/4-|
E|-----------------------------------------------------------|

e|----------------------------------------------|
B|----------------------------------------------|
G|-8-8-8-8-9-9-9-9-11-11-11-11-13-13-13-13-19b--|
D|-x-x-x-x-x-x-x-x-x--x--x--x--x--x--x--x--x----|
A|-6-6-6-6-7-7-7-7-9--9--9--9--11-11-11-11-17b--|
E|----------------------------------------------|

Steadily strum an A chord under the solo.

Song Order:
Intro
Verse
Chorus
Verse
Chorus
Intro
Solo
Chorus
Intro

=============================================================================

Best of You TABBED BY Boot

Tuning: Standard (E A D G B e)

This is off http://www.fftabs.com ...a great site for Foo Fighter tabs...it was made by
people of the Foo Fighters post board, ive added a very tiny amount...it sounds great
too play. All thank-yous go out to...

Contributors: WTFDaveMustaine? | Chris Schu | ragefan609 | friartuck 



Verse
     C#                  A                          B                   A
e|---0--------------|----0-----------|         e|---0--------------|----0-----------|
B|---0--------------|----0-----------|         B|---0--------------|----0-----------|
G|---4--------------|----4-----------|  (x2)   G|---4--------------|----4-----------|
D|---2--------------|----2-----------|         D|---4--------------|----2-----------|
A|---4--------------|----0-----------|         A|---2--------------|----0-----------|
E|------------------|----------------|         E|------------------|----------------|


Chorus
Gtr. 1  soft
     C#                Eb/E                  A                   A
e|---0--------------|----0---------------|---0--------------|----0---------------|
B|---0--------------|----0---------------|---0--------------|----0---------------|
G|---4--------------|----4---------------|---4--------------|----4---------------|  (x3)
D|---2--------------|----1---------------|---2--------------|----2---------------|
A|---4--------------|----x---------------|---0--------------|----0---------------|
E|------------------|----0---------------|------------------|--------------------|

Gtr. 1  heavy
    C#                   A                          B                   A
e|---0--------------|----0-----------|         e|---0--------------|----0----------|
B|---0--------------|----0-----------|         B|---0--------------|----0----------|
G|---4--------------|----4-----------|  (x2)   G|---4--------------|----4----------|
D|---2--------------|----2-----------|         D|---4--------------|----2----------|
A|---4--------------|----0-----------|         A|---2--------------|----0----------|
E|------------------|----------------|         E|------------------|---------------|
	
    C#                   A                          B                   A
e|---0--------------|----0-----------|         e|---0--------------|----0----------|
B|---0--------------|----0-----------|         B|---0--------------|----0----------|
G|---4--------------|----4-----------|  (x2)   G|---4--------------|----4----------|
D|---2--------------|----2-----------|         D|---4--------------|----2----------|
A|---4--------------|----0-----------|         A|---2--------------|----0----------|
E|------------------|----------------|         E|------------------|-------- ------|	   

Gtr. 1 heavy
     C#                Eb/E                  A                   F#
e|---0--------------|----0---------------|---0--------------|----0---------------|
B|---0--------------|----0---------------|---0--------------|----0---------------|
G|---4--------------|----4---------------|---4--------------|----3---------------|  (x4)
D|---2--------------|----1---------------|---2--------------|----4---------------|
A|---4--------------|----x---------------|---0--------------|----4---------------|
E|------------------|----0---------------|------------------|----2---------------|

Gtr. 2 octaves
e|--------------------------|--------------------------|
B|--------------------------|--------------------------|
G|--6--6--6--6--6--6--6--6/-|--8--8--8--8--8--8--8--8/-|
D|--x--x--x--x--x--x--x--x--|--x--x--x--x--x--x--x--x--|
A|--4--4--4--4--4--4--4--4/-|--6--6--6--6--6--6--6--6/-|\
E|--------------------------|--------------------------| |
                                                         |x2
e|--------------------------|--------------------------| |
B|--------------------------|--------------------------|/
G|--9--9--9--9--9--9--9--9/-|--6--6--6--6--6--6--6--6--| 
D|--x--x--x--x--x--x--x--x--|--x--x--x--x--x--x--x--x--|
A|--7--7--7--7--7--7--7--7/-|--4--4--4--4--4--4--4--4--|
E|--------------------------|--------------------------|

e|----------------------------------|----------------------------------|
B|----------------------------------|----------------------------------|
G|--13--13--13--13--13--13--13--13/-|--16--16--16--16--16--16--16--16/-|
D|--x---x---x---x---x---x---x---x---|--x---x---x---x---x---x---x---x---|
A|--11--11--11--11--11--11--11--11/-|--14--14--14--14--14--14--14--14/-|
E|----------------------------------|----------------------------------|
                                                                      
e|----------------------------------|----------------------------------|
B|----------------------------------|----------------------------------|
G|--18--18--18--18--18--18--18--18/-|--15--15--15--15--15--15--15--15--|
D|--x---x---x---x---x---x---x---x---|--x---x---x---x---x---x---x---x---|
A|--16--16--16--16--16--16--16--16/-|--13--13--13--13--13--13--13--13--|
E|----------------------------------|----------------------------------|

e|----------------------------------|----------------------------------|
B|----------------------------------|----------------------------------|
G|--13--13--13--13--13--13--13--13/-|--16--16--16--16--16--16--16--16/-|
D|--x---x---x---x---x---x---x---x---|--x---x---x---x---x---x---x---x---|
A|--11--11--11--11--11--11--11--11/-|--14--14--14--14--14--14--14--14/-|
E|----------------------------------|----------------------------------|
                                                                      
e|----------------------------------|----------------------------------|
B|----------------------------------|----------------------------------|
G|--18--18--18--18--18--18--18--18/-|--18--18--18--18--18--18--18--18--|
D|--x---x---x---x---x---x---x---x---|--x---x---x---x---x---x---x---x---|
A|--16--16--16--16--16--16--16--16/-|--16--16--16--16--16--16--16--16--|
E|----------------------------------|----------------------------------|


Lead (Strum this really fast)
e|----------------------------------|--------------------------------|
B|----------------------------------|--------------------------------|
G|--13--13--13--13--13--13--13--13--|--13--13--13--13--16---13---16--|
D|--x---x---x---x---x---x---x---x---|--x---x---x---x---x----x----x---|
A|--11--11--11--11--11--11--11--11--|--11--11--11--11--14---11---14--|
E|----------------------------------|--------------------------------|
                                                                       
e|----------------------------------|----------------------------------|
B|----------------------------------|----------------------------------|
G|--18--18--18--18--16--16--16--16--|--16--16--16--16--16--16--16--16--|
D|--x---x---x---x---x---x---x---x---|--x---x---x---x---x---x---x---x---|
A|--16--16--16--16--14--14--14--14--|--14--14--14--14--14--14--14--14--|
E|----------------------------------|----------------------------------|

e|----------------------------------|--------------------------------|
B|----------------------------------|--------------------------------|
G|--13--13--13--13--13--13--13--13--|--13--13--13--13--16---13---16--|
D|--x---x---x---x---x---x---x---x---|--x---x---x---x---x----x----x---|
A|--11--11--11--11--11--11--11--11--|--11--11--11--11--14---11---14--|
E|----------------------------------|--------------------------------|
                                                                      
e|----------------------------------|----------------------------------|
B|----------------------------------|----------------------------------|
G|--18--18--18--18--18--18--18--18--|--18--18--18--18--18--18--18--18--|
D|--x---x---x---x---x---x---x---x---|--x---x---x---x---x---x---x---x---|
A|--16--16--16--16--16--16--16--16--|--16--16--16--16--16--16--16--16--|
E|----------------------------------|----------------------------------|


Last Verse
     C#		       A			           B	        	 A
e|---0--------------|----0-----------|		e|---0--------------|----0-----------|
B|---0--------------|----0-----------|		B|---0--------------|----0-----------|
G|---4--------------|----4-----------|  (x2)   	G|---4--------------|----4-----------|
D|---2--------------|----2-----------|		D|---4--------------|----2-----------|
A|---4--------------|----0-----------|		A|---2--------------|----0-----------|
E|------------------|----------------|		E|------------------|----------------|

     C#		      Eb/E	               A		           F#
e|---0--------------|----0---------------|---0--------------|----0---------------|
B|---0--------------|----0---------------|---0--------------|----0---------------|
G|---4--------------|----4---------------|---4--------------|----3---------------|  (x4)
D|---2--------------|----1---------------|---2--------------|----4---------------|
A|---4--------------|----x---------------|---0--------------|----4---------------|
E|------------------|----0---------------|------------------|----2---------------|


Outro
     C#                  C#
e|---0-0--\--x-x-x--|----0-0--\--x-x-x---|	
B|---0-0--\--x-x-x--|----0-0--\--x-x-x---|	
G|---4-4--\--x-x-x--|----4-4--\--x-x-x---|
D|---2-2--\--x-x-x--|----2-2--\--x-x-x---|
A|---4-4--\--x-x-x--|----4-4--\--x-x-x---|
E|-----------x-x-x--|------------x-x-x---|

=============================================================================

Band:	Foo Fighters
Song:	DOA
Album:
Tabber:	Ruairi Coleman

Ok sat up half the night working it out but I think it pretty close to right
but theres still a lot of Guitar 2 parts missing but il work them out soon.
Sorry for it beginning so long. Enjoy and please rate it :)

Ok now to explane afew things: 

Kill-	The word kill followed by a number of * simplely means kill the notes 
	above the * with the plam of your hand straight after you play it.
H -	Hammer on

  Intro/Verse Guitar 1
 E|------------------------------|
 B|------------------------------|
 G|---5--5--5-5---5--5--5-5--5---|
 D|---7--7--7-7---7--7--7-7--7---|Play x10
 A|---0--0--0-0---5--5--5-5--5---|
 E|------------------------------|
 Kill|*  *  * *   *  *  * *  *|

  Pre-chorus Guitar 1
 E|-----------------------------------------------------|
 B|-----------------------------------------------------|
 G|-------0-----0-----0-----0-----0-----0-----0-----0---|
 D|---3-3---3-3---3-3---3-3---5-5---5-5---5-5---5-5-----|
 A|---3-3---3-3---3-3---3-3---5-5---5-5---5-5---5-5-----|
 E|---1-1---1-1---1-1---1-1---2-2---2-2---2-2---2-2-----|Play x2

  Chorus Guitar 1
 E|------------------------------------------------|
 B|------------------------------------------------|
 G|------------------------------------------------|
 D|---7-7-7-7-7--7-7-7-7-7--7-7-7-7-7--7-7-7-7-7---|
 A|---7-7-7-7-7--9-9-9-9-9--7-7-7-7-7--9-9-9-9-9---|\
 E|---5-5-5-5-5--5-5-5-5-5--5-5-5-5-5--5-5-5-5-5---| \
						      Play x2
 E|------------------------------------------------| /
 B|------------------------------------------------|/
 G|---7-7-7-7-7--7-7-7-7-7--7-7-7-7-7--7-7-7-7-7---|
 D|---9-9-9-9-9--7-7-7-7-7--9-9-9-9-9--7-7-7-7-7---|
 A|---5-5-5-5-5--5-5-5-5-5--5-5-5-5-5--5-5-5-5-5---|
 E|------------------------------------------------|

  Chorus Guitar 2
 E|----------------------------------------------------------|\
 B|----------------------------------------------------------|  \
 G|---9-9-9-9-9--11-11-11-11-11--9-9-9-9-9--11-11-11-11-11---|    \
 D|---x-x-x-x-x--x--x--x--x--x---x-x-x-x-x--x--x--x--x--x----|      \
 A|---7-7-7-7-7--9--9--9--9--9---7-7-7-7-7--9--9--9--9--9----|	      \
 E|----------------------------------------------------------|		\
								    Play x2
 E|--------------------------------------------------------------------|/
 B|--------------------------------------------------------------------|
 G|---14-14-14-14-14--16-16-16-16-16--14-14-14-14-14--16-16-16-16-16---|
 D|---x--x--x--x--x---x--x--x--x--x---x--x--x--x--x---x--x--x--x--x----|
 A|---12-12-12-12-12--14-14-14-14-14--12-12-12-12-12--14-14-14-14-14---|
 E|--------------------------------------------------------------------|

  Verse 1 Guitar 1
 E|------------------------------|
 B|------------------------------|
 G|---5--5--5-5---5--5--5-5--5---|
 D|---7--7--7-7---7--7--7-7--7---|Play x4
 A|---0--0--0-0---5--5--5-5--5---|
 E|------------------------------|

 E|--------------------------------|
 B|--------------------------------|
 G|---5h7-5h7-5h7--5-5--5-5--5-5---|
 D|---7---7---7----7-7--7-7--7-7---|Play x4
 A|---0---0---0----5-5--5-5--5-5---|
 E|--------------------------------|

  Pre-chorus Guitar 1
 E|-----------------------------------------------------|
 B|-----------------------------------------------------|
 G|-------0-----0-----0-----0-----0-----0-----0-----0---|
 D|---3-3---3-3---3-3---3-3---5-5---5-5---5-5---5-5-----|
 A|---3-3---3-3---3-3---3-3---5-5---5-5---5-5---5-5-----|
 E|---1-1---1-1---1-1---1-1---2-2---2-2---2-2---2-2-----| Play x2

  Chorus Guitar 1
 E|------------------------------------------------|
 B|------------------------------------------------|
 G|------------------------------------------------|
 D|---7-7-7-7-7--7-7-7-7-7--7-7-7-7-7--7-7-7-7-7---|
 A|---7-7-7-7-7--9-9-9-9-9--7-7-7-7-7--9-9-9-9-9---|\
 E|---5-5-5-5-5--5-5-5-5-5--5-5-5-5-5--5-5-5-5-5---| \
						      Play x2
 E|------------------------------------------------| /
 B|------------------------------------------------|/
 G|---7-7-7-7-7--7-7-7-7-7--7-7-7-7-7--7-7-7-7-7---|
 D|---9-9-9-9-9--7-7-7-7-7--9-9-9-9-9--7-7-7-7-7---|
 A|---5-5-5-5-5--5-5-5-5-5--5-5-5-5-5--5-5-5-5-5---|
 E|------------------------------------------------|

  Chorus Guitar 2
 E|----------------------------------------------------------|\
 B|----------------------------------------------------------|  \
 G|---9-9-9-9-9--11-11-11-11-11--9-9-9-9-9--11-11-11-11-11---|    \
 D|---x-x-x-x-x--x--x--x--x--x---x-x-x-x-x--x--x--x--x--x----|      \
 A|---7-7-7-7-7--9--9--9--9--9---7-7-7-7-7--9--9--9--9--9----|	      \
 E|----------------------------------------------------------|		\
								    Play x2
 E|--------------------------------------------------------------------|/
 B|--------------------------------------------------------------------|
 G|---14-14-14-14-14--16-16-16-16-16--14-14-14-14-14--16-16-16-16-16---|
 D|---x--x--x--x--x---x--x--x--x--x---x--x--x--x--x---x--x--x--x--x----|
 A|---12-12-12-12-12--14-14-14-14-14--12-12-12-12-12--14-14-14-14-14---|
 E|--------------------------------------------------------------------|

  Solo Guitar 1
 E|------------------------------|
 B|------------------------------|
 G|------------------------------|
 D|------------------------------|
 A|---5-7-7-5-7-5----------------|
 E|---------------7-5--5-3-5-3---| Play x6

  Verse 2 Guitar 1
 E|--------------------------------|
 B|--------------------------------|
 G|---5h7-5h7-5h7--5-5--5-5--5-5---|
 D|---7---7---7----7-7--7-7--7-7---|Play x8
 A|---0---0---0----5-5--5-5--5-5---|
 E|--------------------------------|

  Pre-chorus 2 Guitar 1
 E|----------------------------------------|
 B|----------------------------------------|
 G|----------------------------------------|
 D|---3-3-3-3-3-3-3-3--5-5-5-5-5-5-5-5-----|
 A|---3-3-3-3-3-3-3-3--5-5-5-5-5-5-5-5-----|
 E|---1-1-1-1-1-1-1-1--2-2-2-2-2-2-2-2-----|

 E|---------------------------------------------------|
 B|---------------------------------------------------|
 G|---------------------------------------------------|
 D|---3-3-x-3-3-x-3-3-x-3-3-x-5-5-x-5-5-x-5-5-x-5-5---|
 A|---3-3-x-3-3-x-3-3-x-3-3-x-5-5-x-5-5-x-5-5-x-5-5---|
 E|---1-1-x-1-1-x-1-1-x-1-1-x-2-2-x-2-2-x-2-2-x-2-2---|

  Chorus Guitar 1
 E|------------------------------------------------|
 B|------------------------------------------------|
 G|------------------------------------------------|
 D|---7-7-7-7-7--7-7-7-7-7--7-7-7-7-7--7-7-7-7-7---|
 A|---7-7-7-7-7--9-9-9-9-9--7-7-7-7-7--9-9-9-9-9---|\
 E|---5-5-5-5-5--5-5-5-5-5--5-5-5-5-5--5-5-5-5-5---| \
						      Play x2
 E|------------------------------------------------| /
 B|------------------------------------------------|/
 G|---7-7-7-7-7--7-7-7-7-7--7-7-7-7-7--7-7-7-7-7---|
 D|---9-9-9-9-9--7-7-7-7-7--9-9-9-9-9--7-7-7-7-7---|
 A|---5-5-5-5-5--5-5-5-5-5--5-5-5-5-5--5-5-5-5-5---|
 E|------------------------------------------------|

  Chorus Guitar 2
 E|----------------------------------------------------------|\
 B|----------------------------------------------------------|  \
 G|---9-9-9-9-9--11-11-11-11-11--9-9-9-9-9--11-11-11-11-11---|    \
 D|---x-x-x-x-x--x--x--x--x--x---x-x-x-x-x--x--x--x--x--x----|      \
 A|---7-7-7-7-7--9--9--9--9--9---7-7-7-7-7--9--9--9--9--9----|	      \
 E|----------------------------------------------------------|		\
								    Play x2
 E|--------------------------------------------------------------------|/
 B|--------------------------------------------------------------------|
 G|---14-14-14-14-14--16-16-16-16-16--14-14-14-14-14--16-16-16-16-16---|
 D|---x--x--x--x--x---x--x--x--x--x---x--x--x--x--x---x--x--x--x--x----|
 A|---12-12-12-12-12--14-14-14-14-14--12-12-12-12-12--14-14-14-14-14---|
 E|--------------------------------------------------------------------|

  Chorus Guitar 1
 E|------------------------------------------------|
 B|------------------------------------------------|
 G|------------------------------------------------|
 D|---7-7-7-7-7--7-7-7-7-7--7-7-7-7-7--7-7-7-7-7---|
 A|---7-7-7-7-7--9-9-9-9-9--7-7-7-7-7--9-9-9-9-9---|
 E|---5-5-5-5-5--5-5-5-5-5--5-5-5-5-5--5-5-5-5-5---|

 E|----------------------------------------------------------------------|
 B|----------------------------------------------------------------------|
 G|---7-7-7-7-7--7-7-7-7-7--7-7-7-7-7--7-7-7-7-7--7-7-7-7-7--7-7-7-7-7---|
 D|---9-9-9-9-9--7-7-7-7-7--9-9-9-9-9--7-7-7-7-7--9-9-9-9-9--7-7-7-7-7---|
 A|---5-5-5-5-5--5-5-5-5-5--5-5-5-5-5--5-5-5-5-5--5-5-5-5-5--5-5-5-5-5---|
 E|----------------------------------------------------------------------|

  Chorus Guitar 2
 E|----------------------------------------------------------|
 B|----------------------------------------------------------|
 G|---9-9-9-9-9--11-11-11-11-11--9-9-9-9-9--11-11-11-11-11---|
 D|---x-x-x-x-x--x--x--x--x--x---x-x-x-x-x--x--x--x--x--x----|
 A|---7-7-7-7-7--9--9--9--9--9---7-7-7-7-7--9--9--9--9--9----|
 E|----------------------------------------------------------|

 E|--------------------------------------------------------------------|
 B|--------------------------------------------------------------------|
 G|---14-14-14-14-14--16-16-16-16-16--14-14-14-14-14--16-16-16-16-16---|
 D|---x--x--x--x--x---x--x--x--x--x---x--x--x--x--x---x--x--x--x--x----|
 A|---12-12-12-12-12--14-14-14-14-14--12-12-12-12-12--14-14-14-14-14---|
 E|--------------------------------------------------------------------|

 E|------------------------------------|
 B|------------------------------------|
 G|---14-14-14-14-14--16-16-16-16-16---|
 D|---x--x--x--x--x---x--x--x--x--x----|
 A|---12-12-12-12-12--14-14-14-14-14---|
 E|------------------------------------|

  Outro Guitar 1
 E|--------------------------------|	    |--------------------|
 B|--------------------------------|	    |--------------------|
 G|---5h7-5h7-5h7--5-5--5-5--5-5---|	    |---5h7-5h7-5h7------|
 D|---7---7---7----7-7--7-7--7-7---|Play x4 |---7---7---7----7---|
 A|---0---0---0----5-5--5-5--5-5---|Then >  |---0---0---0----5---|
 E|--------------------------------|	    |--------------------|
						    Let ring|----|

=============================================================================

Band:Foo Fighters
Song:Hell
Album:In Your Honour Disk 1 
hi everyone this is my first tab, thought id give back to what ive 

taken so much out of, hope you enjoy it im pretty sure it's 

accurate but if you want to comment my Email address is 

Jyekkil@hotmail.com, this is a brilliant song and i hope you enjoy 

it!


INTRO
e:------------------------------|
B:------------------------------|
G:-----7----strum alot----------|
D:------------------------------|
A:-----5------------------------|
E:------------------------------|



INTO-VERSE 
e|-------------------------|
B|-------------------------|
G|--12--11-9-7-9-7-5-5-4-2-| X2
D|-------------------------|
A|--10--9--7-5-7-5-3-3-2-0-|
E|-------------------------|

INTRO-VERSE PART B (do this bit the third time round,
then go back to the first part, you'll get it)
e|--------------------------------------|
B|--------------------------------------|
G|--12--11-9-7-9-7-5-7-9-11-12-12-12-11-| 
D|--------------------------------------|
A|--10--9--7-5-7-5-3-5-7-9--10-10-10-9--|
E|--------------------------------------|
then back to strumming until the melody kicks in again

"...show you everything" / "...see you in hell"
e|--------------------------------------|
B|--------------------------------------|X2 
G|--12--11-9-7-9-7-5-7-9-11-12-12-12-11-| 
D|--------------------------------------|
A|--10--9--7-5-7-5-3-5-7-9--10-10-10-9--|
E|--------------------------------------|

the part "...well gather round the fire, and i will lead the 

choir"
is basically G to D, though for "sing farewell" i think it goes A 

to G to D, fiddle around with it and you'll get it in the end.

OUTRO:

e|--------------------------------------|
B|--------------------------------------|
G|--14---Strum until end----------------| 
D|--------------------------------------|
A|--12----------------------------------|
E|--------------------------------------|
2nd guitar just strums D.

=============================================================================

Song: The Last Song
Artist: Foo Fighters
Album: In Your Honor
Genre: Rock

Intro
Guitar 1 (Carrys on playin through the verse)
e|--2-2-2-2-2-2-2-2-2-2-2-2-2-2-2-2-2-2--| 
B|--2-2-2-2-2-2-2-2-2-2-2-2-2-2-2-2-2-2--|
G|--4-4-4-4-4-4-4-4-4-4-4-4-4-4-4-4-4-4--|
D|--4-4-4-4-4-2-4-4-4-4-4-4-4-4-4-4-4-4--| x2
A|--2-2-2-2-2-2-2-2-2-2-2-2-2-2-2-2-2-2--|
E|---------------------------------------|

Verse
Guitar 2
e|--2-2-2-0-0-0-------0-0-0--------|  
B|--2-2-2-0-0-0-------0-0-0--------|
G|--4-4-4-2-2-2-6-6-6-2-2-2--------|
D|--4-4-4-2-2-2-6-6-6-2-2-2-2-2-2--| x9
A|--2-2-2-------4-4-4-------2-2-2--|
E|--------------------------0-0-0--|

Pre Chorus
Guitar 1
e|--2---2---2---2---2--|
B|--2---2---2---2---2--|
G|--4---4---4---4---4--|  
D|--4---4---4---4---4--| x2
A|--2---2---2---2---2--|
E|---------------------|

Guitar 2
e|--2---0-------0------|
B|--2---0-------0------|
G|--4---2---6---2------|  
D|--4---2---6---2---2--| x2     
A|--2-------4-------2--|
E|------------------0--|

Chorus
Guitar 1
e|--2-2-2-2-2-2-2-2-----------------0-0-0-0-0-0-0-0------------------|
B|--2-2-2-2-2-2-2-2-----------------0-0-0-0-0-0-0-0------------------|
G|--4-4-4-4-4-4-4-4-----------------2-2-2-2-2-2-2-2------------------|  
D|--4-4-4-4-4-4-4-4-2-2-2-2-2-2-2-2-2-2-2-2-2-2-2-2-2-2-2-2-2-2-2-2--| x2
A|--2-2-2-2-2-2-2-2-2-2-2-2-2-2-2-2-----------------2-2-2-2-2-2-2-2--|
E|------------------0-0-0-0-0-0-0-0-----------------0-0-0-0-0-0-0-0--|

Guitar 2
e|--2-2-2-2-2-2-2-2-7-7-7-7-7-7-7-7-5-5-5-5-5-5-5-5-4-4-4-4-4-4-4-4--|
B|--2-2-2-2-2-2-2-2-7-7-7-7-7-7-7-7-5-5-5-5-5-5-5-5-4-4-4-4-4-4-4-4--|
G|--4-4-4-4-4-4-4-4-9-9-9-9-9-9-9-9-7-7-7-7-7-7-7-7-6-6-6-6-6-6-6-6--|   
D|--4-4-4-4-4-4-4-4-9-9-9-9-9-9-9-9-7-7-7-7-7-7-7-7-6-6-6-6-6-6-6-6--| x2
A|--2-2-2-2-2-2-2-2-7-7-7-7-7-7-7-7-5-5-5-5-5-5-5-5-4-4-4-4-4-4-4-4--|
E|-------------------------------------------------------------------|

Verse
Guitar 2
e|--2-2-2-0-0-0-------0-0-0--------|  
B|--2-2-2-0-0-0-------0-0-0--------|
G|--4-4-4-2-2-2-6-6-6-2-2-2--------|
D|--4-4-4-2-2-2-6-6-6-2-2-2-2-2-2--| x9
A|--2-2-2-------4-4-4-------2-2-2--|
E|--------------------------0-0-0--|

Pre Chorus
Guitar 1
e|--2---2---2---2---2--|
B|--2---2---2---2---2--|
G|--4---4---4---4---4--|  
D|--4---4---4---4---4--| x2
A|--2---2---2---2---2--|
E|---------------------|

Guitar 2
e|--2---0-------0------|
B|--2---0-------0------|
G|--4---2---6---2------|  
D|--4---2---6---2---2--| x2     
A|--2-------4-------2--|
E|------------------0--|

Chorus
Guitar 1
e|--2-2-2-2-2-2-2-2-----------------0-0-0-0-0-0-0-0------------------|
B|--2-2-2-2-2-2-2-2-----------------0-0-0-0-0-0-0-0------------------|
G|--4-4-4-4-4-4-4-4-----------------2-2-2-2-2-2-2-2------------------|  
D|--4-4-4-4-4-4-4-4-2-2-2-2-2-2-2-2-2-2-2-2-2-2-2-2-2-2-2-2-2-2-2-2--| x2
A|--2-2-2-2-2-2-2-2-2-2-2-2-2-2-2-2-----------------2-2-2-2-2-2-2-2--|
E|------------------0-0-0-0-0-0-0-0-----------------0-0-0-0-0-0-0-0--|

Guitar 2
e|--2-2-2-2-2-2-2-2-7-7-7-7-7-7-7-7-5-5-5-5-5-5-5-5-4-4-4-4-4-4-4-4--|
B|--2-2-2-2-2-2-2-2-7-7-7-7-7-7-7-7-5-5-5-5-5-5-5-5-4-4-4-4-4-4-4-4--|
G|--4-4-4-4-4-4-4-4-9-9-9-9-9-9-9-9-7-7-7-7-7-7-7-7-6-6-6-6-6-6-6-6--|   
D|--4-4-4-4-4-4-4-4-9-9-9-9-9-9-9-9-7-7-7-7-7-7-7-7-6-6-6-6-6-6-6-6--| x4
A|--2-2-2-2-2-2-2-2-7-7-7-7-7-7-7-7-5-5-5-5-5-5-5-5-4-4-4-4-4-4-4-4--|
E|-------------------------------------------------------------------|

Bridge x2
Guitar 1
e|--2-2-2-2-2-2-2-2-2-2-2-2-2-2-2-2-4-4-4-4-4-4-4-4-4-4-4-4-4-4-4-4--|
B|--2-2-2-2-2-2-2-2-2-2-2-2-2-2-2-2-4-4-4-4-4-4-4-4-4-4-4-4-4-4-4-4--|
G|--4-4-4-4-4-4-4-4-4-4-4-4-4-4-4-4-6-6-6-6-6-6-6-6-6-6-6-6-6-6-6-6--|
D|--4-4-4-4-4-4-4-4-4-4-4-4-4-4-4-4-6-6-6-6-6-6-6-6-6-6-6-6-6-6-6-6--|
A|--2-2-2-2-2-2-2-2-2-2-2-2-2-2-2-2-4-4-4-4-4-4-4-4-4-4-4-4-4-4-4-4--|
E|-------------------------------------------------------------------|
                                                                        
e|--0-0-0-0-0-0-0-0-0-0-0-0-0-0-0-0----------------------------------|
B|--0-0-0-0-0-0-0-0-0-0-0-0-0-0-0-0----------------------------------|
G|--2-2-2-2-2-2-2-2-2-2-2-2-2-2-2-2----------------------------------|
D|--2-2-2-2-2-2-2-2-2-2-2-2-2-2-2-2-2-2-2-2-2-2-2-2-2-2-2-2-2-2-2-2--|
A|----------------------------------2-2-2-2-2-2-2-2-2-2-2-2-2-2-2-2--|
E|----------------------------------0-0-0-0-0-0-0-0-0-0-0-0-0-0-0-0--|

Guitar 2
e|---------------| |---------------| |---------------| |---------------|
B|---------------| |---------------| |---------------| |---------------|
G|--8------------| |--8------------| |--8-------6----| |--8-------6----|
D|----9-7--------| |----9-7--------| |----9-7--------| |----9-7--------|
A|--------9-7----| |--------9-7----| |--------9------| |--------9------|
E|------------7--| |------------9--| |------------9--| |------------9--|

e|---------------| |---------------| |---------------| |---------------|
B|---------------| |---------------| |---------------| |---------------|
G|--8------------| |--8------------| |--8------------| |--8------------|
D|----9-7--------| |----9-7--------| |----9-7--------| |----9-7--------|
A|--------9-7----| |--------9-7----| |--------9-7----| |--------9-7----|
E|------------7--| |------------7--| |------------7--| |------------7--|

Verse
Guitar 2
e|--2-2-2-0-0-0-------0-0-0--------|  
B|--2-2-2-0-0-0-------0-0-0--------|
G|--4-4-4-2-2-2-6-6-6-2-2-2--------|
D|--4-4-4-2-2-2-6-6-6-2-2-2-2-2-2--| x3
A|--2-2-2-------4-4-4-------2-2-2--|
E|--------------------------0-0-0--|

Pre Chorus
Guitar 1
e|--2---2---2---2---2--|
B|--2---2---2---2---2--|
G|--4---4---4---4---4--|  
D|--4---4---4---4---4--| x1
A|--2---2---2---2---2--|
E|---------------------|

Guitar 2
e|--2---0-------0------|
B|--2---0-------0------|
G|--4---2---6---2------|  
D|--4---2---6---2---2--| x1     
A|--2-------4-------2--|
E|------------------0--|

Chorus
Guitar 1
e|--2-2-2-2-2-2-2-2-----------------0-0-0-0-0-0-0-0------------------|
B|--2-2-2-2-2-2-2-2-----------------0-0-0-0-0-0-0-0------------------|
G|--4-4-4-4-4-4-4-4-----------------2-2-2-2-2-2-2-2------------------|  
D|--4-4-4-4-4-4-4-4-2-2-2-2-2-2-2-2-2-2-2-2-2-2-2-2-2-2-2-2-2-2-2-2--| x2
A|--2-2-2-2-2-2-2-2-2-2-2-2-2-2-2-2-----------------2-2-2-2-2-2-2-2--|
E|------------------0-0-0-0-0-0-0-0-----------------0-0-0-0-0-0-0-0--|

Guitar 2
e|--2-2-2-2-2-2-2-2-7-7-7-7-7-7-7-7-5-5-5-5-5-5-5-5-4-4-4-4-4-4-4-4--|
B|--2-2-2-2-2-2-2-2-7-7-7-7-7-7-7-7-5-5-5-5-5-5-5-5-4-4-4-4-4-4-4-4--|
G|--4-4-4-4-4-4-4-4-9-9-9-9-9-9-9-9-7-7-7-7-7-7-7-7-6-6-6-6-6-6-6-6--|   
D|--4-4-4-4-4-4-4-4-9-9-9-9-9-9-9-9-7-7-7-7-7-7-7-7-6-6-6-6-6-6-6-6--| x4
A|--2-2-2-2-2-2-2-2-7-7-7-7-7-7-7-7-5-5-5-5-5-5-5-5-4-4-4-4-4-4-4-4--|
E|-------------------------------------------------------------------|

Outro
Guitar 1
e|--2---2---2---2---2--|
B|--2---2---2---2---2--|
G|--4---4---4---4---4--|  
D|--4---4---4---4---4--| x4
A|--2---2---2---2---2--|
E|---------------------|

Guitar 2
e|--2---0-------0------|
B|--2---0-------0------|
G|--4---2---6---2------|  
D|--4---2---6---2---2--| x4     
A|--2-------4-------2--|
E|------------------0--|

=============================================================================

Foo Fighters - Free Me - fixed-

Album: 2005 - In Your Honor
Instrument: Guitar
Tuning: eBGDAE

Tabbed By: Pablomassolo84.


Intro/1st Verse
  Gtr.1      v          v          v              5x
e||----------0----------0----------0----------------||
B||----------3----------3----------3----------------||
G||----------0----------0----------0----------------||
D||----------2----------2----------2----------------||
A||------2----------2----------2----------2---1-0---||
E||--0-0---0----0-0---0----0-0---0----0-0---0-------||

  Gtr.2      2x
e||----------||
B||----------||
G||----------|| 
D||------2---||
A||-2--------||
E||---0------|| 

             2x
e||------12--||
B||--12------||
G||----------|| 
D||----------||
A||----------||
E||----------||

  Gtr.1 Gtr.2  2x      Gtr.1        
e||--------------------------------||
B||--------------------------------||
G||--------------------------------||
D||--------------------------------||
A||------9-----8-7-----------------||
E||--0-0-7-0---6-5-----0-/-15-/-0--||

Main riff
  Gtr. 1				             
e||----------------------------------------------------||
B||----------------------------------------------------||
G||----------------------------------------------------||
D||----------------------------------------------------||
A||----------7~---------7~---------7~---------8-7------||
E||--0-0-7-0----0-0-7-0----0-0-7-0----0-0-7-0-6-5------||

  Gtr. 2						     
e||----------------------------------------------------||
B||----------------------------------------------------||
G||----------------------------------------------------||
D||----------------------------------------------------||
A||----------10~---------10~---------10~----------8-7--||
E||--0-0-7-0-----0-0-7-0-----0-0-7-0------0-0-7-0-6-5--||


Verses
                              
             v          v          v              
e||----------0----------0----------0----------------||
B||----------3----------3----------3----------------||
G||----------0----------0----------0----------------||
D||----------2----------2----------2----------------||
A||------2----------2----------2----------2---1-0---||
E||--0-0---0----0-0---0----0-0---0----0-0---0-------||

Chorus
  Gtr.1
e||---------------------------------------------------------||
B||---------------------------------------------------------||
G||----------------------------------------9-9-9-9-9-9-9-9--||
D||--5-5-5-5-5-5-5-7-7-7-7-7-7-6-6-6-6-6-6-9-9-9-9-9-9-9-9--||
A||--5-5-5-5-5-5-5-7-7-7-7-7-7-6-6-6-6-6-6-7-7-7-7-7-7-7-7--||
E||--3-3-3-3-3-3-3-5-5-5-5-5-5-4-4-4-4-4-4-0-0-0-0-0-0-0-0--||

  Gtr.2     2x             2x          2x          2x       2x
e||---------------------------------------------------------||
B||---------------------------------------------------------||
G||----------4-------------4------------4-----------4-------|| 
D||-------2-------------2------------2-----------2----------||
A||----------------0-0--------------------------------------||
E||--3-3------------------------4-4---------0-0-------------||


Post-Chorus(2nd and 3rd Chorus)
  Gtr.1
e||--------------------------||
B||--------------------------||
G||--------------------------||
D||--5-5-5-5---7-7-7-7---7---||
A||--3-3-3-3---5-5-5-5---7---||
E||----------------------5---||

  Gtr.2             2x              2x              4x
e||-----------------|----------------------------------------||
B||-----------------|----------------------------------------||
G||--------------4--|-------------------------------4--------||
D||--------2--------|--------4-----5----------2--------------||
A||--3--3-----3-----|--5--5-----5-------0--0-----0-----------||
E||-----------------|----------------------------------------||


e||----------------------||
B||----------------------||
G||----------------------||
D||----------------------||
A||----------------------||
E||--7-7--6-6--5-5--3-3--||

  Gtr. 1				             
e||----------------------------------------------------||
B||----------------------------------------------------||
G||----------------------------------------------------||
D||----------------------------------------------------||
A||----------7~---------7~---------7~---------8-7------||
E||--0-0-7-0----0-0-7-0----0-0-7-0----0-0-7-0-6-5------||

  Gtr. 2						     
e||----------------------------------------------------||
B||----------------------------------------------------||
G||----------------------------------------------------||
D||----------------------------------------------------||
A||----------10~---------10~---------10~----------8-7--||
E||--0-0-7-0-----0-0-7-0-----0-0-7-0------0-0-7-0-6-5--||

 
e||----------------------||
B||----------------------||
G||----------------------||
D||----------------------||
A||--9-9--8-8--7-7--5-5--||
E||--7-7--6-6--5-5--3-3--||

  Gtr. 1				             
e||----------------------------------------------------||
B||----------------------------------------------------||
G||----------9----------9----------9-------------------||
D||----------9----------9----------9-------------------||
A||----------7----------7----------7----------8-7------||
E||--0-0-7-0----0-0-7-0----0-0-7-0----0-0-7-0-6-5------||

  Gtr. 2						     
e||----------------------------------------------------||
B||----------------------------------------------------||
G||----------------------------------------------------||
D||----------------------------------------------------||
A||----------10~---------10~---------10~----------8-7--||
E||--0-0-7-0-----0-0-7-0-----0-0-7-0------0-0-7-0-6-5--||

  Gtr.1 Gtr.2  2x      Gtr.1        
e||--------------------------------||
B||--------------------------------||
G||--------------------------------||
D||--------------------------------||
A||------9-----8-7-----0-/-19-/----||
E||--0-0-7-0---6-5-----------------||


 Final chord.
e||--0----||
B||--0----||
G||--x----||
D||--2----||
A||--2----||
E||--0----||

=============================================================================

				                            FOO FIGHTERS
                              RESOLVE


STANDARD TUNING
EADGBe


intro
------------------|
------------------|
------------------|
--5-5-5-5-5-5-----|
--5-5-5-5-5-5-----|
--2-3-2-3-2-3-----|

------------------------------------------------------------------|
-----------------------------------------------------------5b-----|
--6-4-2-4----2-4--------2-4-2---4---7-6-4--4/2-4-4---7-6-7----7---|
-----------4-----2--4/5-------5-----------------------------------|
------------------------------------------------------------------|
------------------------------------------------------------------|

----------------|
----------------|
----------------|
--5-5-5-5-5-----|
--5-5-5-5-5-----|
--2-3-2-3-2-----|

=============================================================================

The Deepest Blues Are Back

Intro/Verse

e||--8---11--8---11--13--8---11--8--||
B||--x---x---x---x---x---x---x---x--||
G||--10--13--10--13--15--10--13--10-||
D||--10--13--10--13--15--10--13--10-||
A||--8---11--8---11--13--8---11--8--||
E||---------------------------------||

Gtr.2 (If guitar 1 makes u trouble like it has made for me u can play this one all the
time. Anyway this guitar comes also in some parts of the song, listen it to get them)
e||--1--4--1--4--6--1--4--1-||
B||--1--4--1--4--6--1--4--1-||
G||--2--5--2--5--7--2--5--2-||
D||--3--6--3--6--8--3--6--3-||
A||--3--6--3--6--8--3--6--3-||
E||--1--4--1--4--6--1--4--1-||


Chorus
             2x
e||--1--0-------|--3----||
B||--1--0-------|--3----||
G||--2--1--3--2-|--4--3-||
D||--3--2--3--2-|--5--3-||
A||--3--2--1--0-|--5--1-||
E||--1--0-------|--3----||


Bridge

Gtr.1         2x
e||--1--4-------|--4-||
B||--1--4-------|--4-||
G||--2--5--5--3-|--5-||
D||--3--6--6--3-|--6-||
A||--3--6--6--1-|--6-||
E||--1--4--3----|--4-||

Gtr.2 (During the second part of the bridge)
e||-------------------------------||
B||-------------------------------||
G||--6--8--10--12--13--15--17--20-||
D||--x--x--x---x---x---x---x---x--||
A||--4--6--8---10--11--13--15--18-||
E||-------------------------------||

=============================================================================

Foo Fighters - End Over End

Artist: Foo Fighters
Album: In Your Honor
Genre: Rock

Tuning: eBGDAE


Verse
e||---------------|-----------------|-----------------|--------------||
B||--3--3--3---3--|--3--3--3--3--3--|--3--3--3--3--3--|--3--3--3--3--||
G||--2--2--2---2--|--2--2--2--2--2--|--2--2--2--2--2--|--2--2--2--2--||
D||--0--0--0---0--|--3--3--3--x--3--|--x--x--x--x--x--|--0--0--0--0--||
A||----------3----|-----------------|--3--3--3--0--3--|--x--x--x--x--||
E||---------------|-----------------|-----------------|--3--3--3--3--||


Pre-Chorus
e||--------------------------||    ||--------------------------||
B||--3--3--3--3--3--3--3--3--||    ||--3--3--3--3--3--3--3--3--||
G||--2--2--2--2--2--2--2--2--|| X2 ||--2--2--2--2--2--2--2--2--|| X2
D||--0--0--0--0--0--0--0--0--||    ||--x--x--x--x--x--x--x--x--||
A||--------------------------||    ||--3--3--3--3--3--3--3--3--||
E||--------------------------||    ||--------------------------||

e||--------------------------||    ||--------------------------||
B||--3--3--3--3--3--3--3--3--||    ||--------------------------||
G||--2--2--2--2--2--2--2--2--|| X2 ||--------------------------||
D||--0--0--0--0--0--0--0--0--||    ||--3--3--3--3--5--5--5--5--||
A||--------------------------||    ||--3--3--3--3--5--5--5--5--||
E||--------------------------||    ||--1--1--1--1--3--3--3--3--||


Chorus (just the chords here)
e||-----|-----|-----|-----||
B||--3--|--3--|--3--|--3--||
G||--2--|--2--|--2--|--2--||
D||--0--|--3--|--x--|--0--||
A||-----|-----|--3--|--x--||
E||-----|-----|-----|--3--||


Solo
e|----10-10----12-10----8-10--------8-10-------8-10-8-7--|
B|-10-------10-------10-----------8------8~--8-----------|
G|---------------------------10~-------------------------|
D|-------------------------------------------------------|
A|-------------------------------------------------------|
E|-------------------------------------------------------|


Repeat verse


Pre-Chorus again (new part added)
e|---------------------------------|
B|---------------------------------|
G|--11--11--11--11--11--11--11--9--|
D|--x---x---x---x---x---x---x---x--|
A|--9---9---9---9---9---9---9---7--|
E|---------------------------------|

e|------------------------------|
B|------------------------------|
G|--7--7--7--7--7--7--7--7--11--|
D|--x--x--x--x--x--x--x--x--x---|
A|--5--5--5--5--5--5--5--5--9---|
E|------------------------------|

e|------------------|--------------|
B|------------------|--------------|
G|--12--12--12--12--|--9--9--7--7--|
D|--x---x---x---x---|--x--x--x--x--|
A|--10--10--10--10--|--7--7--5--5--|
E|------------------|--------------|

e|---------------------------------|
B|---------------------------------|
G|--11--11--11--11--11--11--11--9--|
D|--x---x---x---x---x---x---x---x--|
A|--9---9---9---9---9---9---9---7--|
E|---------------------------------|

e|-----------------------------|
B|-----------------------------|
G|--7--7--7--7--7--7--7--7--7--|
D|--x--x--x--x--x--x--x--x--x--|
A|--5--5--5--5--5--5--5--5--5--|
E|-----------------------------|

e|--------------------------||
B|--------------------------||
G|--------------------------||
D|--3--3--3--3--5--5--5--5--||
A|--3--3--3--3--5--5--5--5--||
E|--1--1--1--1--3--3--3--3--||


Repeat Chorus (new lead part added)
e|--10--10--10--10--10--10--10--8---|--8---8---8---8---8---8---8---8---|
B|--10--10--10--10--10--10--10--10--|--10--10--10--10--10--10--10--10--|
G|----------------------------------|----------------------------------|
D|----------------------------------|----------------------------------|
A|----------------------------------|----------------------------------|
E|----------------------------------|----------------------------------|

e|--8--8--8--8--8--8--8--7--|--7--7--7--8--8--7--7---7---|
B|--8--8--8--8--8--8--8--8--|--8--8--8--8--8--8--10--10--|
G|--------------------------|----------------------------|
D|--------------------------|----------------------------|
A|--------------------------|----------------------------|
E|--------------------------|----------------------------|
Repeat this 4 times.


Lead break
e|--------------------------------------------------|
B|--------------------------------------------------|
G|--11--11--11--12--12--12--14--14--14--17--17--17--|
D|--x---x---x---x---x---x---x---x---x---x---x---x---|
A|--9---9---9---10--10--10--12--12--12--15--15--15--|
E|--------------------------------------------------|

e|-------------------------------------|
B|-------------------------------------|
G|--12--12--14--14--16--16--16b17--14--|
D|--x---x---x---x---x---x---x------x---|
A|--10--10--12--12--14--14--14-----12--|
E|-------------------------------------|

e|--------------------------------------------------|
B|--------------------------------------------------|
G|--11--11--11--12--12--12--14--14--14--17--17--17--|
D|--x---x---x---x---x---x---x---x---x---x---x---x---|
A|--9---9---9---10--10--10--12--12--12--15--15--15--|
E|--------------------------------------------------|

e|-------------------------------|
B|-------------------------------|
G|--9--11--10--9--7--5--7--9--7--|
D|--x--x---x---x--x--x--x--x--x--|
A|--7--9---8---7--5--3--5--7--5--|
E|-------------------------------|


Solo
e|-----------------------------------------------|
B|-----------------------------------------------|
G|-9----9-11---------12--9----9-11---------12----|
D|---12------10-9-10-------12------10-9-10-------|
A|-----------------------------------------------|
E|-----------------------------------------------|

e|-----------------------------------------------|
B|-----------------------------------------------|
G|-9----9-11--9----9-11--9----9-11--9----9-11b---|
D|---12---------12---------12---------12---------|
A|-----------------------------------------------|
E|-----------------------------------------------|

=============================================================================


Suggest correction
comments
print report bad tab
4 comments total. Showing first comments.
0 reply
shoebox_of_lies 2,833 wrote on June 21 2006, 08:22 pm

i didnt get better ratings or anything, but i think my version of "hell" is a little better. gee that doesnt sound conceded...

0 reply
Mateo12192 10 wrote on August 11 2006, 04:51 pm

this is a really good tab.. I think there should be lyrics on all of the songs tho to be a little more helpful

0 reply
vintage_becca 30 wrote on December 9 2006, 03:12 pm

yo.

how come you didnt tab out "the sign"??

guest
You may want to rate the tab now too:
select rating
Wanna post a correction for this tab? Suggest correction