Oops, an error
Loading. Please wait.

In Your Honor Bass Tab

version 2
version 2

Whole song

Interactive

1,431 views 3 this week
no commentswrite comment
1 2 3 4 5
please rate
add to favorites
launch autoscroll
font size
0
reset
guitar tuner
Tab Pro tools
  • play this tab
  • loop segment
  • change instrument
  • show fretboard
  • metronome
×
Best way to learn
"In Your Honor"
Autoscroll
slow
fast
+/-
esc
set tempo
stop
Contributor
-------------------------------------------------------------------------------
	 	    IN YOUR HONOR - Foo Fighters
-------------------------------------------------------------------------------

Tabbed By : Barry Miles
e-mail: barrymiles@hotmail.com

The Bass Guitar doesn't actually come in until right after the first chorus.

Verse (x12):

What Nate Mendel plays on the recording is very boring for the verse, so I 
added the guitar notes in ( ) if you want play that instead (which I think
 he does live).

G|---------------------------------|---------------------------------|
D|---------------------------------|---------------------------------|
A|----------------(7-7-7-7-7-7-7-7)|(6-6-6-6-6-6-6-6-2-2-2-2-2-2-2-2)|
E|-0-0-0-0-0-0-0-0-0-0-0-0-0-0-0-0-|-0-0-0-0-0-0-0-0-0-0-0-0-0-0-0-0-|

Chorus (x2):

G|---------------------------------|---------------------------------|
D|---------------------------------|---------------------------------|
A|---------------------------------|---------------------------------|
E|-0-0-0-0-0-0-0-0-0-0-0-0-0-0-0-0-|-0-0-0-0-0-0-0-0-0-0-0-0-0-0-0-0-|

G|---------------------------------|---------------------------------|
D|---------------------------------|---------------------------------|
A|---------------------------------|---------------------------------|
E|-2-2-2-2-2-2-2-2-2-2-2-2-2-2-2-2-|-2-2-2-2-2-2-2-2-2-2-2-2-2-2-2-2-|

G|---------------------------------|---------------------------------|
D|---------------------------------|---------------------------------|
A|-4-4-4-4-4-4-4-4-4-4-4-4-4-4-4-4-|-7-7-7-7-7-7-7-7-7-7-7-7-7-7-7-7-|
E|---------------------------------|---------------------------------|

G|---------------------------------|---------------------------------|
D|---------------------------------|---------------------------------|
A|-9-9-9-9-9-9-9-9-9-9-9-9-9-9-9-9-|-9-9-9-9-9-9-9-9-9-9-9-9-9-9-9-9-|
E|---------------------------------|---------------------------------|

Bridge:

Again, pretty boring, at least until you get to the outro.

G|---------------------------------|---------------------------------|
D|---------------------------------|---------------------------------|
A|---------------------------------|---------------------------------| x4
E|-0-0-0-0-0-0-0-0-0-0-0-0-0-0-0-0-|-0-0-0-0-0-0-0-0-0-0-0-0-0-0-0-0-|

G|----------------------------------|----------------------------------|
D|----------------------------------|----------------------------------|\
A|----------------------------------|----------------------------------| \
E|-0-0-0-0-0-0-0-0-0-0-0-0-0-0-11p0-|-0-0-0-0-0-0-0-0-0-0-0-0-0-0-12p0-|  \
                                                                          x2
G|----------------------------------|----------------------------------|  /
D|----------------------------------|----------------------------------| /
A|----------------------------------|----------------------------------|/
E|-0-0-0-0-0-0-0-0-0-0-0-0-0-0-11p0-|-0-0-0-0-0-0-0-0-0-0-0-0-0-0-11-12|

Outro:

G|----------------------------------|----------------------------------|
D|----------------------------------|----------------------------------|\
A|----------------------------------|----------------------------------| \
E|-0-0-7p0-7p0-0-0-5p0-7p0-0-0-11p0-|-0-0-7p0-7p0-0-0-5p0-7p0-0-0-12p0-|  \
                                                                          x4
G|----------------------------------|----------------------------------|  /
D|----------------------------------|----------------------------------| /
A|----------------------------------|----------------------------------|/
E|-0-0-7p0-7p0-0-0-5p0-7p0-0-0-11p0-|-0-0-7p0-7p0-0-0-5p0-7p0-0-0-11-12|

| /  slide up
| \  slide down
| h  hammer-on
| p  pull-off
| ~  vibrato
| +  harmonic
| x  Mute note
===============================================================================
comments
We did not receive enough feedback on this tab! Please rate:
print report bad tab
1 2 3 4 5
I want to post or [tab]
guest
You may want to rate the tab now too:
select rating
Please do not post tabs as comments. Select "correction" instead!