Oops, an error
Loading. Please wait.

Last Song Tab

version 2
version 2

Whole song

Interactive

1,200 views 1 this week
1 commentread comment
1 2 3 4 5
accurate
x 3
add to favorites
launch autoscroll
font size
0
reset
how to read this tab
guitar tuner
Tab Pro tools
  • play this tab
  • loop segment
  • change instrument
  • show fretboard
  • metronome
×
Best way to learn
"Last Song"
Autoscroll
slow
fast
+/-
esc
set tempo
stop
Contributor
Difficulty
advanced
FOO FIGHTERS - THE LAST SONG

Tuning: Normal

Transcribed by Juan Angel De Camillis

INTRO
  Gtr. 1
e||----------------------------||
B||----------------------------||
G||--11-11-11-11-11-11-11-11---|| (4 bars)
D||---9--9--9--9--9--9--9--9---||
A||---9--9--9--9--9--9--9--9---||
E||----------------------------||

VERSE
  Gtr. 1
e||----------------------------------------------||
B||----------------------------------------------||
G||--11-11-11--9--9--9-13-13-13--9--9--9--9--9---|| 
D||---9--9--9--9--9--9--9--9--9--9--9--9--9--9---||
A||---9--9--9--9--9--9--9--9--9--9--9--9--9--9---||
E||----------------------------------------------||
     "this is the sound..."

  Gtr. 2
e||-----------------------------------||
B||-----------------------------------||
G||--4-4-4-4-4-4-4-4-4-4-4-4-4-4-4-4--||
D||--4-4-4-4-4-4-4-4-4-4-4-4-x-x-x-x--||
A||--2-2-2-0-0-0-4-4-4-0-0-0-2-2-2-2--||
E||--------------------------0-0-0-0--||

PRE CHORUS
 Gtrs. 1 & 2
e||-----------------------------------||
B||-----------------------------------||
G||--4-4-4-4-4-4-4-4-4-4-4-4-4-4-4-4--||
D||--4-4-4-4-4-4-4-4-4-4-4-4-x-x-x-x--||
A||--2-2-2-0-0-0-4-4-4-0-0-0-2-2-2-2--||
E||--------------------------0-0-0-0--||
     "but you're out of tune" 

CHORUS
  Gtr. 1
e||----------------------------------||
B||----------------------------------||
G||--4-4-4-4-9-9-9-9-7-7-7-7-6-6-6-6-|| 
D||--4-4-4-4-9-9-9-9-7-7-7-7-6-6-6-6-||
A||--2-2-2-2-7-7-7-7-5-5-5-5-4-4-4-4-||
E||----------------------------------||
     "this is the last song..."


  Gtr. 2 
e||----------------------------------||
B||----------------------------------||
G||--4-4-4-4-9-9-9-9-7-7-7-7-9-9-9-9-|| 
D||--4-4-4-4-x-x-x-x-x-x-x-x-x-x-x-x-||
A||--2-2-2-2-7-7-7-7-5-5-5-5-7-7-7-7-||
E||----------------------------------||


VERSE 2
  Gtr. 1
e||----------------------------------------------||
B||----------------------------------------------||
G||--11-11-11--9--9--9-13-13-13--9--9--9--9--9---|| 
D||---9--9--9--9--9--9--9--9--9--9--9--9--9--9---||
A||---9--9--9--9--9--9--9--9--9--9--9--9--9--9---||
E||----------------------------------------------||

  Gtr. 2
e||-----------------------------------||
B||-----------------------------------||
G||--4-4-4-4-4-4-4-4-4-4-4-4-4-4-4-4--||
D||--4-4-4-4-4-4-4-4-4-4-4-4-x-x-x-x--||
A||--2-2-2-0-0-0-4-4-4-0-0-0-2-2-2-2--||
E||--------------------------0-0-0-0--||


PRE CHORUS 2 (Different)
  Gtrs. 1&2
e||-----------------------------------||
B||-----------------------------------||
G||--4-4-4-2-2-2-6-6-6-2-2-2----------||
D||--4-4-4-2-2-2-6-6-6-2-2-2-2-2-2-2--||
A||--2-2-2-0-0-0-4-4-4-0-0-0-2-2-2-2--||
E||--------------------------0-0-0-0--||
    "but there ain't no room"

CHORUS 2
  Gtr. 1
e||----------------------------------||
B||----------------------------------||
G||--4-4-4-4-9-9-9-9-7-7-7-7-6-6-6-6-|| 
D||--4-4-4-4-9-9-9-9-7-7-7-7-6-6-6-6-||
A||--2-2-2-2-7-7-7-7-5-5-5-5-4-4-4-4-||
E||----------------------------------||
     "this is the last song..."

  Gtr. 2
e||------------------------------------------||
B||------------------------------------------||
G||--4-4-4-4-4-9-9-9-9-9-7-7-7-7-7-9-9-9-9-9-|| (2 times)
D||--x-x-x-x-x-x-x-x-x-x-x-x-x-x-x-x-x-x-x-x-||
A||--2-2-2-2-2-7-7-7-7-7-5-5-5-5-5-7-7-7-7-7-||
E||------------------------------------------||

e||----------------------------------------------------||
B||----------------------------------------------------||
G||--4-4-4-4-4-9-9-9-9-9-14-14-14-14-14-13-13-13-13-13-|| (2 times)
D||--x-x-x-x-x-x-x-x-x-x-x--x--x--x--x--x--x--x--x--x--||
A||--2-2-2-2-2-7-7-7-7-7-12-12-12-12-12-11-11-11-11-11-||
E||----------------------------------------------------||


SOLO
  Gtr. 2 
e||------------------|------------------|-----------------|-----------------|
B||------4-0---------|----4-0-----------|-----4-------2---|-----4-------2---|
G||----------2-------|---------2--------|-------4-2-------|-------4-2-------|
D||------------4-2---|-----------4-2----|-----------4-----|-----------4-----|
A||--2-2-----------2-|-2-2------------4-|-4-4-----------4-|-4-4-----------4-|
E||------------------|------------------|-----------------|-----------------|
 

e|------------------|------------------|------------------|-----------------||
B|------4-0---------|-----4-0----------|-----4-0----------|-----4-0---------||
G|----------2-------|---------2--------|---------2--------|---------2-------|| x2
D|------------4-2---|-----------4-2----|-----------4-2----|-----------4-2---||
A|--0-0-----------0-|-0-0------------0-|------------------|-----------------||
E|------------------|------------------|-0-0------------0-|-0-0-----------0-||
 

 Gtr. 1
e||------------------|-----------------|-----------------|-----------------|
B||------------------|-----------------|-----------------|-----------------|
G||--4-4-4-4-4-4-4-4-|-4-4-4-4-4-4-4-4-|-4-4-4-4-4-4-4-4-|-4-4-4-4-4-4-4-4-|
D||--4-4-4-4-4-4-4-4-|-4-4-4-4-4-4-4-4-|-4-4-4-4-4-4-4-4-|-4-4-4-4-4-4-4-4-|
A||--2-2-2-2-2-2-2-2-|-2-2-2-2-2-2-2-2-|-4-4-4-4-4-4-4-4-|-4-4-4-4-4-4-4-4-|
E||------------------|-----------------|-----------------|-----------------|
    A5                        E5
e|------------------|-----------------|-----------------|-----------------||
B|------------------|-----------------|-----------------|-----------------||
G|--2-2-2-2-2-2-2-2-|-2-2-2-2-2-2-2-2-|-----------------|-----------------||
D|--2-2-2-2-2-2-2-2-|-2-2-2-2-2-2-2-2-|-9-9-9-9-9-9-9-9-|-9-9-9-9-9-9-9-9-|| x2
A|--0-0-0-0-0-0-0-0-|-0-0-0-0-0-0-0-0-|-7-7-7-7-7-7-7-7-|-7-7-7-7-7-7-7-7-||
E|------------------|-----------------|-0-0-0-0-0-0-0-0-|-0-0-0-0-0-0-0-0-||


PRE CHORUS 3

Gtrs. 1 & 2
e||-----------------------------------||
B||-----------------------------------||
G||--4-4-4-4-4-4-4-4-4-4-4-4-4-4-4-4--||
D||--4-4-4-4-4-4-4-4-4-4-4-4-x-x-x-x--||
A||--2-2-2-0-0-0-4-4-4-0-0-0-2-2-2-2--||
E||--------------------------0-0-0-0--||


CHORUS 3

  Gtr. 1
e||----------------------------------||
B||----------------------------------||
G||--4-4-4-4-9-9-9-9-7-7-7-7-6-6-6-6-|| 
D||--4-4-4-4-9-9-9-9-7-7-7-7-6-6-6-6-||
A||--2-2-2-2-7-7-7-7-5-5-5-5-4-4-4-4-||
E||----------------------------------||

  Gtr. 2 
e||----------------------------------||
B||----------------------------------||
G||--4-4-4-4-9-9-9-9-7-7-7-7-9-9-9-9-|| 
D||--4-4-4-4-x-x-x-x-x-x-x-x-x-x-x-x-||
A||--2-2-2-2-7-7-7-7-5-5-5-5-7-7-7-7-||
E||----------------------------------||


OUTRO
 
Gtrs. 1&2
e||----------------------------------|---||
B||----------------------------------|---||
G||--4-4-4-4-4-4-4-4-4-4-4-4-4-4-4-4-|-4-||
D||--4-4-4-4-4-4-4-4-4-4-4-4-x-x-x-x-|-x-|| Gtr 1
A||--2-2-2-0-0-0-4-4-4-0-0-0-2-2-2-2-|-2-||
E||--------------------------0-0-0-0-|-0-||
                                                End Chord (let ring) 
                                     |---||
                                     |---||
                                     |-2-||
                                     |-2-|| Gtr 2 
                                     |-0-||
comments
We did not receive enough feedback on this tab! Please rate:
print report bad tab
1 2 3 4 5
1 comment total.
0 reply
DeathlyShadow wrote on April 4 2009, 01:56 pm

this tab difficulty is not advanced its novice

I want to post or [tab]
guest
You may want to rate the tab now too:
select rating
Please do not post tabs as comments. Select "correction" instead!