Oops, an error
Loading. Please wait.

Last Song Tab

version 3
version 3

Whole song

Interactive

1,092 views 1 this week
no commentswrite comment
1 2 3 4 5
please rate
add to favorites
launch autoscroll
font size
0
reset
how to read this tab
guitar tuner
Autoscroll
slow
fast
+/-
esc
set tempo
stop
Help us to improve Ultimate-Guitar.com Take our survey!
×
Contributor
-------------------------------------------------------------------------------
                             The Last Song - Foo Fighters
-------------------------------------------------------------------------------
Tabbed by: scorpsfan830
E-mail: jacobselsor@gmail.com

Tuning: Standard (EADGBe)

Guitar 1
  Intro
e|--2--|
B|--0--|
G|--4--|  4 bars
D|--4--|
A|-----|
E|-----|

Verse 1
  Guitar 1
e|--2-2-2-0-0-4-4-4-0-0-0-0-0-0--|
B|--0-0-0-0-0-0-0-0-0-0-0-0-0-0--|
G|--4-4-4-4-4-4-4-4-4-4-4-4-4-4--| 9x
D|--4-4-4-4-4-4-4-4-4-4-4-4-4-4--|
A|-------------------------------|
E|-------------------------------|

  Guitar 2 
e|---------------------------------|
B|---------------------------------|
G|--4-4-4-4-4-4-4-4-4-4-4-4-4-4-4--| 9x
D|--4-4-4-2-2-2-2-2-2-2-2-2-2-2-2--|
A|--2-2-2-0-0-0-4-4-4-0-0-0-2-2-2--|
E|--------------------------0-0-0--|

Pre-Chorus
  Both Guitars
e|-----------------------|
B|-----------------------|
G|--4~-2~-6~-2~----------| 2x
D|--4~-2~-6~-2~-2-2-2-2--|
A|--2~-0~-4~-0~-2-2-2-2--|
E|--------------0-0-0-0--|

Chorus
  Guitar 1
e|---------------------------------------------------------------------------|
B|---------------------------------------------------------------------------|
G|--4-4-4-4-4-4-4-4-9-9-9-9-9-9-9-9-7-7-7-7-7-7-7-7-6-6-6-6-6-6-6-6----------|
D|--4-4-4-4-4-4-4-4-9-9-9-9-9-9-9-9-7-7-7-7-7-7-7-7-6-6-6-6-6-6-6-6----------| 2x
A|--2-2-2-2-2-2-2-2-7-7-7-7-7-7-7-7-5-5-5-5-5-5-5-5-4-4-4-4-4-4-4-4----------|
E|---------------------------------------------------------------------------|

  Guitar 2
e|---------------------------------------------------------------------------|
B|---------------------------------------------------------------------------|
G|--4-4-4-4-4-4-4-4-9-9-9-9-9-9-9-9-7-7-7-7-7-7-7-7-6-6-6-6-6-6-6-6----------|
D|--x-x-x-x-x-x-x-x-x-x-x-x-x-x-x-x-x-x-x-x-x-x-x-x-x-x-x-x-x-x-x-x----------| 2x
A|--2-2-2-2-2-2-2-2-7-7-7-7-7-7-7-7-5-5-5-5-5-5-5-5-4-4-4-4-4-4-4-4----------|
E|---------------------------------------------------------------------------|

VERSE
PRE-CHORUS

Chorus 2
  Guitar 1
e|---------------------------------------------------------------------------|
B|---------------------------------------------------------------------------|
G|--4-4-4-4-4-4-4-4-9-9-9-9-9-9-9-9-7-7-7-7-7-7-7-7-6-6-6-6-6-6-6-6----------|
D|--4-4-4-4-4-4-4-4-9-9-9-9-9-9-9-9-7-7-7-7-7-7-7-7-6-6-6-6-6-6-6-6----------| 4x
A|--2-2-2-2-2-2-2-2-7-7-7-7-7-7-7-7-5-5-5-5-5-5-5-5-4-4-4-4-4-4-4-4----------|
E|---------------------------------------------------------------------------|

  Guitar 2
e|---------------------------------------------------------------------------|
B|---------------------------------------------------------------------------|
G|--4-4-4-4-4-4-4-4-9-9-9-9-9-9-9-9-7-7-7-7-7-7-7-7-6-6-6-6-6-6-6-6----------|
D|--x-x-x-x-x-x-x-x-x-x-x-x-x-x-x-x-x-x-x-x-x-x-x-x-x-x-x-x-x-x-x-x----------| 2x
A|--2-2-2-2-2-2-2-2-7-7-7-7-7-7-7-7-5-5-5-5-5-5-5-5-4-4-4-4-4-4-4-4----------|
E|---------------------------------------------------------------------------|

e|-----------------------------------------------------------------------------------|
B|-----------------------------------------------------------------------------------|
G|--4-4-4-4-4-4-4-4-9-9-9-9-9-9-9-9-14-14-14-14-14-14-14-14-13-13-13-13-13-13-13-13--|
D|--x-x-x-x-x-x-x-x-x-x-x-x-x-x-x-x-x--x--x--x--x--x--x--x--x--x--x--x--x--x--x--x---| 2x
A|--2-2-2-2-2-2-2-2-7-7-7-7-7-7-7-7-12-12-12-12-12-12-12-12-11-11-11-11-11-11-11-11--|
E|-----------------------------------------------------------------------------------|

Solo
  Guitar 2 - (2x each bar)
e|------------------|------------------|------------------|---------------------|\
B|------------------|------------------|------------------|---------------------| \
G|------8-----------|------8---------6-|------8-----------|------8--------------|  \2x
D|--------9-7-------|--------9-7-------|--------9-7-------|--------9-7----------|  /
A|------------9-7-0-|------------9-7---|--0-0-------9-7-0-|------------9-7------| / 
E|--7-7-------------|--9-9-------------|------------------|--0-0----------------|/

  Guitar 1 - (2x each bar)
e|-----------------|-------------------------|-----------------|------------------|\
B|-----------------|-------------------------|-----------------|------------------| \
G|-----------------|-------------------------|-----------------|------------------|  \2x
D|-9-9-9-9-9-9-9-9-|-11-11-11-11-11-11-11-11-|-7-7-7-7-7-7-7-7-|------------------|  /
A|-9-9-9-9-9-9-9-9-|-11-11-11-11-11-11-11-11-|-0-0-0-0-0-0-0-0-|-7-7-7-7-7-7-7-7--| /
E|-7-7-7-7-7-7-7-7-|-9--9--9--9--9--9--9--9--|-----------------|-0-0-0-0-0-0-0-0--|/

Verse
  Guitar 1
e|--2-2-2-0-0-4-4-4-0-0-0-0-0-0--|
B|--0-0-0-0-0-0-0-0-0-0-0-0-0-0--|
G|--4-4-4-4-4-4-4-4-4-4-4-4-4-4--| 3x
D|--4-4-4-4-4-4-4-4-4-4-4-4-4-4--|
A|-------------------------------|
E|-------------------------------|

   Guitar 2 
e|---------------------------------|
B|---------------------------------|
G|--4-4-4-4-4-4-4-4-4-4-4-4-4-4-4--| 3x
D|--4-4-4-2-2-2-2-2-2-2-2-2-2-2-2--|
A|--2-2-2-0-0-0-4-4-4-0-0-0-2-2-2--|
E|--------------------------0-0-0--|

Pre-Chorus
  Both Guitars
e|-----------------------|
B|-----------------------|
G|--4~-2~-6~-2~----------| 1x
D|--4~-2~-6~-2~-2-2-2-2--|
A|--2~-0~-4~-0~-2-2-2-2--|
E|--------------0-0-0-0--|

Chorus 3
  Guitar 1
e|---------------------------------------------------------------------------|
B|---------------------------------------------------------------------------|
G|--4-4-4-4-4-4-4-4-9-9-9-9-9-9-9-9-7-7-7-7-7-7-7-7-6-6-6-6-6-6-6-6----------|
D|--4-4-4-4-4-4-4-4-9-9-9-9-9-9-9-9-7-7-7-7-7-7-7-7-6-6-6-6-6-6-6-6----------| 4x
A|--2-2-2-2-2-2-2-2-7-7-7-7-7-7-7-7-5-5-5-5-5-5-5-5-4-4-4-4-4-4-4-4----------|
E|---------------------------------------------------------------------------|

  Guitar 2
e|---------------------------------------------------------------------------|
B|---------------------------------------------------------------------------|
G|--4-4-4-4-4-4-4-4-9-9-9-9-9-9-9-9-7-7-7-7-7-7-7-7-6-6-6-6-6-6-6-6----------|
D|--x-x-x-x-x-x-x-x-x-x-x-x-x-x-x-x-x-x-x-x-x-x-x-x-x-x-x-x-x-x-x-x----------| 2x
A|--2-2-2-2-2-2-2-2-7-7-7-7-7-7-7-7-5-5-5-5-5-5-5-5-4-4-4-4-4-4-4-4----------|
E|---------------------------------------------------------------------------|

e|-----------------------------------------------------------------------------------|
B|-----------------------------------------------------------------------------------|
G|--4-4-4-4-4-4-4-4-9-9-9-9-9-9-9-9-14-14-14-14-14-14-14-14-13-13-13-13-13-13-13-13--|
D|--x-x-x-x-x-x-x-x-x-x-x-x-x-x-x-x-x--x--x--x--x--x--x--x--x--x--x--x--x--x--x--x---| 2x
A|--2-2-2-2-2-2-2-2-7-7-7-7-7-7-7-7-12-12-12-12-12-12-12-12-11-11-11-11-11-11-11-11--|
E|-----------------------------------------------------------------------------------|

Outro
  Both Guitars
e|-----------------------|    
B|-----------------------|    
G|--4~-2~-6~-2~----------| 3x
D|--4~-2~-6~-2~-2-2-2-2--|
A|--2~-0~-4~-0~-2-2-2-2--|
E|--------------0-0-0-0--|

B|---------------------------|
G|--4~-2~-6~-2~--------------| Play this on the 4th time
D|--4~-2~-6~-2~-2~~~~~~~-----|
A|--2~-0~-4~-0~-2~~~~~~~-----|
E|--------------0~~~~~~~-----|
***********************************************************************************

Hope you enjoyed, this is a really fun song to play. Please leave NICE comments 
and corrections if you have any. THANKS!!! ROCK ON!!




***********************************************************************************
LYRICS:

This is the sound
The here and the now
You've got to talk, to talk, to talk, to talk
To get it all out

I listen
I listen
I listen

But you're out of tune
You're so out of tune

This is the last song (This is the last song)
This is the last song
That I will dedicate to you

Something I've found
Yeah, well I'm still around
You've got to walk, to walk, to walk, to walk
To make any ground

You're pushing
You're pushing
You're pushing

But there ain't no room
No there ain't no room

This is the last song (This is the last song)
This is the last song (This is the last song)
That I will dedicate to you
I made my peace
And now I'm through
This is the last song
That I will dedicate to you

And yours is a name
I will never name again
I will never name again

We pretend it doesn't matter
We pretend it all away
We pretend it all away

We pretend
We pretend
We pretend

But it ain't no use

This is the last song (This is the last song)
This is the last song (This is the last song)
That I will dedicate to you
I made my peace
And now I'm through

This is the last song
That I will dedicate to you
To you
To you 
***********************************************************************************
| /   slide up
| \   slide down
| h   hammer-on
| p   pull-off
| ~   vibrato
| +   harmonic
| x   Mute note
| b   Bend
| pb  Pre-bend
| br  Bend release
| pbr Pre-bend release
| brb Bend release bend

************************************
Suggest correction new What's this?
You can suggest a correction to this tab. Community and Mods will review your correction and vote to approve or reject it.
comments
We did not receive enough feedback on this tab! Please rate:
print report bad tab
1 2 3 4 5
guest
You may want to rate the tab now too:
select rating
Please do not post tabs as comments. Select "correction" instead!