Oops, an error
Loading. Please wait.

Learn To Fly Bass Tab

29,581 views 15 this week
2 commentsread comments
1 2 3 4 5
x 31
add to favorites
launch autoscroll
font size
0
reset
guitar tuner
Autoscroll
slow
fast
+/-
esc
set tempo
stop
Help us to improve Ultimate-Guitar.com Take our survey!
×
Artist: Foo Fighters
Album: There Is Nothing Left To Loose
Song: Learn To Fly
Tabbed By: Phil B

*= This sign means to hit the note and let it ring


[Chorus and Intro]

 2x
G|--------------------------------------------------|
D|--------------------------------------------------|
A|-222222-------------------------------------------|
E|--------222222-0000000000-------------------------|


[Verse]

 4x On the 4th time keep hitting the E string
G|--------------------------------------------------|
D|--------------------------------------------------|
A|-2*-----------------------------------------------|
E|----2*--0*----------------------------------------|


[Part after Chorus]

G|--------------------------------------------------|
D|-5555555555--77777777777--------------------------|
A|--------------------------------------------------|
E|--------------------------------------------------|


[Chorus Variation]

G|--------------------------------------------------|
D|-5555555555--77777777777--2222222-44--------------|
A|--------------------------------------------------|
E|--------------------------------------------------|


G|-----------------------------------------------------|
D|-----------------------------------------------------|
A|-222222---------5555555------------------------------|
E|--------3333333---------0000000-2-33333333-5555555---|


G|-----------------------------------------------------|
D|-----------------------------------------------------|
A|-222222---------5-5----------------------------------|
E|--------3333333--5-5-0000000-2-33333333-5555555------|


 [Bit at the end]

G|-----------------------------------------------|
D|------------2-4--------------------------------|
A|-2*-------2------------------------------------|
E|-----------------------------------------------|
 
Suggest correction
comments
print report bad tab
2 comments total.
+2 reply
tydogg2443 522 Apr 09, 2014 01:01 PM

The third Chorus Variation is...
G|-----------------------------------------------------
D|-----------------------------------------------------
A|-22222---------5---5---------------------------------
E|-------3333333---5---2\-0000000-2-33333333-5555555---

+2 reply
KennyM79 2,228 Jun 11, 2015 02:17 PM

Instead of jumping from 5 to 7 and then all the way to 2, why not just play the 7th fret on the A? That would be much easier and you get the same result.

G--------------------------------------------------
D-5555555555--77777777777----------44--------------
A--------------------------7777777-----------------
E--------------------------------------------------

guest
You may want to rate the tab now too:
select rating
Wanna post a correction for this tab? Suggest correction