Oops, an error
Loading. Please wait.

Learn To Fly Tab

version 3
version 3
20,916 views 42 this week
2 commentsread comments
1 2 3 4 5
x 5
add to favorites
launch autoscroll
font size
0
reset
how to read this tab
guitar tuner
Autoscroll
slow
fast
+/-
esc
set tempo
stop
Help us to improve Ultimate-Guitar.com Take our survey!
×
Song: Learn to Fly
Artist: Foo Fighters
Album: There is Nothing Left to Lose
Track: 3
Tabbed By: Terry

Riff 1 Guitar 1
E---------------------0-00-0000-000000----
B---------------------0-00-0000-000000----
G--4-44-44-4----------1-11-1111-111111----
D--4-44-44-4-4-44-444-2-22-2222-222222----
A--2-22-22-2-4-44-444-2-22-2222-222222----
E------------2-22-222-0-00-0000-000000----

Riff 1 Guitar 2
E-----------------------------------------
B-----------------------------------------
G--4-44-444-4/6-66-6/7/6-6/4-4-4-4444444--
D--x-xx-xxx-x-x-xx-x-x-x-x-x-x-x-xxxxxxx--
A--2-22-222-2/4-44-4/5/4-4/2-2-2-2222222--
E-----------------------------------------

Verse
E--2-22-222-2-22-222-0-00-0000-000000-----
B--4-44-444-2-22-222-0-00-0000-000000-----
G--4-44-444-3-33-333-1-11-1111-111111-----
D--4-44-444-4-44-444-2-22-2222-222222-----
A--2-22-222-4-44-444-2-22-2222-222222-----
E-----------2-22-222-0-00-0000-000000-----

Chorus (strum each chord a couple of times)
E-----------------------------------------------------
B-----------------------------------------------------
G--4--------4---------4-------------------------------
D--4-4-2----4-4-2-----4-4-2-----5---7-----------------
A--2-4-2----2-4-2-----2-4-2-----5---7-----------------
E----2-0------2-0-------2-0-----3---5-----------------

Bridge (strum each chord a couple of times)
E-----------------------------------------
B-----------------------------------------
G--4-----7--------------------------------
D--4--5--7--2--5--7-----------------------
A--2--5--5--2--5--7-----------------------
E-----3-----0--3--5-----------------------
Suggest correction
comments
print report bad tab
2 comments total.
+1 reply
RCH15 45 Dec 24, 2008 11:33 AM

Why is this not rated higher?

0 reply
andrewjp123 573 Oct 06, 2009 06:28 PM

this is great

guest
You may want to rate the tab now too:
select rating
Wanna post a correction for this tab? Suggest correction