Oops, an error
Loading. Please wait.

Learn To Fly Bass Tab

10,284 views 9 this week
1 commentread comment
1 2 3 4 5
x 7
add to favorites
launch autoscroll
font size
0
reset
guitar tuner
Autoscroll
slow
fast
+/-
esc
set tempo
stop
Help us to improve Ultimate-Guitar.com Take our survey!
×
Author
Difficulty
Intro/ Chorus
G|-------------------------------------------------------------------|
D|-------------------------------------------------------------------|
A|-2-2-2-2-2-2-2-2---------------------------------------------------|
E|-----------------2-2-2-2-2-2-2-2-0-0-0-0-0-0-0-0-0-0-0-0-0-0-0-0-0-|


Verse
G|-------------|
D|-------------|
A|-2~----------|
E|-----2~--0~--| x3

G|-------------------------|
D|-------------------------|
A|-2~----------------------|
E|-----2~--0-0-0-0-0-0-0-0-|

G|-----------------------------------|
D|-5-5-5-5-5-5-5-5-7-7-7-7-7-7-7-7-7-|
A|-----------------------------------|
E|-----------------------------------|

Post-Chorus Variation
G|-----------------------------------------------------|
D|-5-5-5-5-5-5-5-5-7-7-7-7-7-7-7-7-7-2-2-2-2-2-2-2-2-2-|
A|-----------------------------------------------------|
E|-----------------------------------------------------|

G|-----------------------------------|
D|-5-5-5-5-5-5-5-5-7-7-7-7-7-7-7-7-7-|
A|-----------------------------------|
E|-----------------------------------|

G|-----------------------------------------------------------------|
D|-----------------------------------------------------------------|
A|-2-2-2-2-2-2-2-2-----------------5-5-5-5-5-5-5-5-----------------|
E|-----------------3-3-3-3-3-3-3-3-----------------0-0-0-0-0-0-0-0-|

G|---------------------------------|
D|---------------------------------|
A|---------------------------------|
E|-3-3-3-3-3-3-3-3-5-5-5-5-5-5-5-5-|

G|---------------------------------------------------------|
D|-----------------------------------------2-2-2-2-2-2-2-2-|
A|-2-2-2-2-2-2-2-2-----------------5---5-------------------|
E|-----------------3-3-3-3-3-3-3-3---5---5-----------------|

G|---------------------------------|
D|---------------------------------|
A|---------------------------------|
E|-3-3-3-3-3-3-3-3-5-5-5-5-5-5-5-5-|

End
G|----------|
D|----------|
A|-2--------|
E|---2-0~---|

Intro  x2
Verse
Chorus x3
Post-Chorus
Intro  x2
Verse  x1
Chorus x3
Post-Chorus Variation
Chorus x3
Post-Chorus
Chorus x3
Post-Chorus
Chorus x2
End
Suggest correction
comments
print report bad tab
1 comment total.
0 reply
Delboy_360 10 Oct 30, 2007 12:52 PM

Shit man, this is awesome

guest
You may want to rate the tab now too:
select rating
Wanna post a correction for this tab? Suggest correction