Oops, an error
Loading. Please wait.

Learn To Fly Bass Tab

4,097 views 33 this week
1 commentread comment
1 2 3 4 5
excellent!
x 5
add to favorites
launch autoscroll
font size
0
reset
guitar tuner
Autoscroll
slow
fast
+/-
esc
set tempo
stop
Help us to improve Ultimate-Guitar.com Take our survey!
×
Contributor
Kapuli13 367
Foo Fighters - Learn to Fly (Bass)
(Normal Tuning)

Tabbed by Kapuli13
I got some of this from fftabs.com but I did something by my self. Enjoy!

Intro (twice)
G|----------------------------|
D|----------------------------|
A|-2-2-2--2-2-2---------------|
E|---------------2-2-2--2-2-2-|

G|----------------------------|
D|----------------------------|
A|----------------------------|
E|-0-0-0--0-0-0--0-0-0--0-0-0-|


Verse
G|---------------------------------------|
D|---------------------------------------|
A|-2-------------------------------------|
E|-------------2----------0*-----------0-|
*repeatedly on measure before chorus


1st Chorus
G|----------------------------|
D|----------------------------|
A|-2-2-2--2-2-2---------------|
E|---------------2-2-2--2-2-2-|
                              |>(3x)
G|----------------------------|
D|----------------------------|
A|----------------------------|
E|-0-0-0--0-0-0--0-0-0--0-0-0-|


G|-------------------------------------------|
D|-------------------------------------------|
A|-10-10-10-10-10-10-10-10-12-12-12-12-12-12-|
E|-------------------------------------------|


2nd chorus
G|----------------------------|
D|----------------------------|
A|-2-2-2--2-2-2---------------|
E|---------------2-2-2--2-2-2-|
                              |>(3x)
G|----------------------------|
D|----------------------------|
A|----------------------------|
E|-0-0-0--0-0-0--0-0-0--0-0-0-|

G|-------------------------------------------|
D|-------------------------------------------|
A|-10-10-10-10-10-10-10-10-12-12-12-12-12-12-|
E|-------------------------------------------|

G|----------------|
D|----------------|
A|-7-7-7--7-7-7-9-|
E|----------------|

G|-------------------------------------------|
D|-------------------------------------------|
A|-10-10-10-10-10-10-10-10-12-12-12-12-12-12-|
E|-------------------------------------------|


Bridge
G|-----------------------------------------|
D|-----------------------------------------|
A|-2-2-2--2-2-2---------------5-5-5--5-5-5-|
E|--------------3-3-3--3-3-3---------------|

G|-----------------------------------------|
D|-----------------------------------------|
A|-----------------------------------------|
E|-0-0-0--0-2-3-3-3-3-3-3-3-5-5-5-5-5-5-5--|

G|-----------------------------------------|
D|-----------------------------------------|
A|-2-2-2--2-2-2----------------5---5-------|
E|--------------3-3-3--3-3-3-----5---2-----|

G|-----------------------------------------|
D|-----------------------------------------|
A|-----------------------------------------|
E|-0-0-0--0-2-3-3-3-3-3-3-3-5-5-5-5-5-5-5--|


Last Chorus
G|----------------------------|
D|----------------------------|
A|-2-2-2--2-2-2---------------|
E|---------------2-2-2--2-2-2-|
                              |>(6x)
G|----------------------------|
D|----------------------------|
A|----------------------------|
E|-0-0-0--0-0-0--0-0-0--0-0-0-|

G|-------------------------------------------|
D|-------------------------------------------|
A|-10-10-10-10-10-10-10-10-12-12-12-12-12-12-|
E|-------------------------------------------|

G|----------------|
D|----------------|
E|-7-7-7--7-7-7-9-|
A|----------------|

G|-------------------------------------------|
D|-------------------------------------------|
A|-10-10-10-10-10-10-10-10-12-12-12-12-12-12-|
E|-------------------------------------------|

G|----------------|
D|----------------|
A|-7-7-7--7-7-7-9-|
E|----------------|

G|-------------------------------------------|
D|-------------------------------------------|
A|-10-10-10-10-10-10-10-10-12-12-12-12-12-12-|
E|-------------------------------------------|


Outro
G|--------------------------------------|
D|--------------------------------------|
A|-2----2----2----2----2----2----2----2-|
E|--------------------------------------|

G|-------|
D|-------|
A|-2-7-9-|
E|-------|
comments
print report bad tab
1 comment total.
+1 reply
tydogg2443 536 wrote on April 9 2014, 01:14 pm, edited on April 10 2014, 07:31 pm

This is the most accurate version on U-G at the moment. Not quite 100%, but definitely good enough to point people in the right direction. Picking pattern's pretty off, though.

I want to post or [tab]
guest
You may want to rate the tab now too:
select rating
Please do not post tabs as comments. Select "correction" instead!