Oops, an error
Loading. Please wait.

Learn To Fly Bass Tab

1,018 views 1 this week
2 commentsread comments
1 2 3 4 5
1 last vote to show rating
add to favorites
launch autoscroll
font size
0
reset
guitar tuner
Autoscroll
slow
fast
+/-
esc
set tempo
stop
Help us to improve Ultimate-Guitar.com Take our survey!
×
Difficulty
intermediate
I've learned this song by music learner, so this have to be 100% correct.

Standar tuning.

~ - let ring
* - let ring shortly

INTRO:

G|------------------------------------|
D|------------------------------------|
A|-5-55-555---------------------------|
E|----------5-55-555-3-33-333-3-33-333| x2

VERS:

G|----------------------|
D|----------------------|
A|-5~-------------------|
E|--------5~-----3~-----| x4

Before chorus, you can if you want strum up and down very fast on the 3rd fret E-string, 
like a little pre-chorus.

CHORUS:

G|------------------------------------|
D|------------------------------------|
A|-5-55-555---------------------------|
E|----------5-55-555-3-33-333-3-33-333|

G|------------------------------------|
D|------------------------------------|
A|-5-55-555---------------------------|
E|----------5-55-555-3-33-333-3-33-333|

G|------------------------------------|
D|------------------------------------|
A|-5-55-555---------------------------|
E|----------5-55-555-3-33-333-3-33-333|

G|--------------------|
D|--------------------|
A|-111111111-33333333-|
E|--------------------|

Then after this you go back to the intro and play it all the way back to the chorus, 
then you go onto the bridge.

BRIDGE:

G|----------------------------------------------------------------|
D|----------------------------------------------------------------|
A|-------------------33333333-55555555-11111111-------------------|
E|-33333355-66666666----------------------------11111111-33333333-|

G|-------------------------------------------------------------------------|
D|-------------------------------------------------------------------------|
A|-11111111-33333333-55555555-11111111-------------------11111111-33333333-|
E|-------------------------------------11111111-33333333-------------------|

Then you go over to the chorus, and play it twise this time, then go back to the outro.

OUTRO:

G|----------------------------------------------------------|
D|----------------------------------------------------------|
A|-------------------33333333-------------------33333333-5~-|
E|-33333355-66666666----------33333355-66666666-------------|

G|----------|
D|----------|
A|-5*-------|
E|----3*-5~-|
Suggest correction
Give kudos to tab author, rate the tab!
1 2 3 4 5
comments
print report bad tab
2 comments total.
0 reply
KennyM79 2,228 Jun 11, 2015 02:21 PM, edited at 02:21 pm

Lack of formatting. Lack of accuracy. Tab incomplete. Clearly wrong. This tab is completely bogus. There is not one note on this tab that matches what's actually played in the song.

This tab should be deleted.

0 reply
LukeRaybould 413 Sep 30, 2015 04:18 PM

Music Learner was obviously not 100% right, cause this tab is very wrong. Sorry mate.

guest
You may want to rate the tab now too:
select rating
Wanna post a correction for this tab? Suggest correction