Oops, an error
Loading. Please wait.
We have an official Learn To Fly tab made by UG professional guitarists. Check out the tab »
×

Learn To Fly tab

version 8
version 8

Whole song

Video

49 views 18 this week
no commentswrite comment
1 2 3 4 5
2 more votes to show rating
add to favorites
×
Save as Personal and add changes to this tab that will be seen only by you. Learn more ›
×
You can save this tab as Personal to edit and correct it or add notes. All changes will be seen only by you. Learn more »
launch autoscroll
font size
0
reset
how to read this tab
guitar tuner
backing track
0:00
0:00
edit
Autoscroll
slow
fast
+/-
esc
set tempo
stop
About this tab version
Contains everything that the guitars play in the studio recording. Was this info helpful? Yes No
Artist: Foo Fighters
Song: Learn To Fly
Album: There Is Nothing Left To Lose (1999)

Guitar 1 (E A D G B e) - 'Dave Grohl - Light Distortion, Rhythm'
Guitar 2 (E A D G B e) - 'Dave Grohl - Light Distortion, Lead'
Guitar 3 (E A D G B e) - 'Dave Grohl - Distortion, Lead'

This is the arrangement on the original studio recording. 

[Intro]
  Gtr 1
   1/4      4/4
    (Q)       Q   E Q   E E E      Q   E Q   E   E E      Q   E Q   E E E     +E E E Q   E E E
e||--------|--------0---0-0-0---|--------0---0---0-0---|--------0---0---0---|----0---0---0-0-0---|
B||--------|--------0---0-0-0---|--------0---0---0-0---|--------0---0---0---|----0---0---0-0-0---|
G||--------|--4---4-4---4-4-4---|--2---2-2---2---2-2---|--1---1-1---1-1-1---|----1-1-1---1-1-1---|
D||--------|--4---4-4---4-4-4---|--4---4-4---4---4-4---|--2---2-2---2-2-2---|----2-2-2---2-2-2---|
A||--------|--2---2-2---2-2-2---|--4---4-4---4---4-4---|--2---2-2---2-2-2---|----2-2-2---2-2-2---|
E||--------|--------------------|----------------------|--0---0-0---0-0-0---|----0-0-0---0-0-0---|
 ||        |                    |                      |                    |                    |
 ||Gtr 3   |                    |                      |                    |                    |
 ||  Q     |  Q   E Q   E E E   |  E E E Q   S S E E   |  E E E Q   E E E   | +E E E Q   E E E   |
e||--------|--------------------|----------------------|--------------------|--------------------|
B||--------|--------------------|----------------------|--------------------|--------------------|
G||--------|--4---4-4---4-4-4---|--4/6-6-6---6b7r6-6---|--6\4-4-4---4-4-4---|----4-4-4---4-4-4---|
D||--------|--x---x-x---x-x-x---|--x-x-x-x---x-x-x-x---|--x-x-x-x---x-x-x---|----x-x-x---x-x-x---|
A||--------|--2---2-2---2-2-2---|--2/4-4-4---4b5r4-4---|--4\2-2-2---2-2-2---|----2-2-2---2-2-2---|
E||--14\---|--------------------|----------------------|--------------------|--------------------|

    Q   E Q   E E E      Q   E Q   E  E E      Q   E Q   E E E     +E E E Q   E E E
e|--------0---0-0-0---|--------0---0--0-0---|--------0---0---0---|----0---0---0-0-0---|
B|--------0---0-0-0---|--------0---0--0-0---|--------0---0---0---|----0---0---0-0-0---|
G|--4---4-4---4-4-4---|--2---2-2---2--2-2---|--1---1-1---1-1-1---|----1-1-1---1-1-1---|
D|--4---4-4---4-4-4---|--4---4-4---4--4-4---|--2---2-2---2-2-2---|----2-2-2---2-2-2---|
A|--2---2-2---2-2-2---|--4---4-4---4--4-4---|--2---2-2---2-2-2---|----2-2-2---2-2-2---|
E|--------------------|---------------------|--0---0-0---0-0-0---|----0-0-0---0-0-0---|
 |                    |                     |                    |                    |
 |  Q   E Q   E E E   |  E E E Q   S E. E   |  E E E Q   E Q     |  Q   E Q   E E E   |
e|--------------------|---------------------|--------------------|--------------------|
B|--------------------|---------------------|--------------------|--------------------|
G|--4---4-4---4-4-4---|--4/6-6-6---6b7--6---|--6\4-4-4---4-------|------4-4---4-4-4---| [Play one more octave
D|--x---x-x---x-x-x---|--x-x-x-x---x-x--x---|--x-x-x-x---x-------|------x-x---x-x-x---|  at the start of the
A|--2---2-2---2-2-2---|--2/4-4-4---4b5--4---|--4\2-2-2---2-0-----|------2-2---2-2-2---|         verse]
E|--------------------|---------------------|--------------------|--4-----------------|


[Verse 1]
  Gtr 1
    E E E E +H           E E E E +H           E E E E +H           E E E E +H        (x3)
e|--------2-----------|--------0-----------|--------0-----------|--------0-----------|
B|o---2---2-----------|----0---0-----------|----0---0-----------|----0---0----------o|
G|----4---4-----------|----2---2-----------|----1---1-----------|----1---1-----------|
D|--4-4-4-4-----------|--4-4-4-4-----------|--2-2-2-2-----------|--2-2-2-2-----------|
A|o-2---2-------------|--4---4-------------|--2---2-------------|--2---2------------o|
E|--------------------|--------------------|--0-----------------|--0-----------------|

    E E E E +H           E E E E +H           E E E Q   E E E     +E E E Q   E E E
e|--------2-----------|--------0-----------|--------0---0---0---|----0---0---0---0---| 
B|----2---2-----------|----0---0-----------|----0---0---0---0---|----0---0---0---0---|[Gtr 2 plays an E chord
G|----4---4-----------|----2---2-----------|----1---1---1-1-1---|----1-1-1---1-1-1---|  and slowly increases
D|--4-4-4-4-----------|--4-4-4-4-----------|--2-2-2-2---2-2-2---|----2-2-2---2-2-2---|         volume]
A|--2---2-------------|--4---4-------------|--2---2-2---2-2-2---|----2-2-2---2-2-2---|
E|--------------------|--------------------|--0-----0---0-0-0---|----0-0-0---0-0-0---|


[Chorus 1]
  Gtr 1 & 2
    Q   E Q   E E E      Q   E Q   E E E      Q   E Q   E E E     +E E E Q   E E E   (x3)
e|--------0---0-0-0---|--------0---0-0-0---|--------0---0---0---|----0---0---0-0-0---|
B|o-------0---0-0-0---|--------0---0-0-0---|--------0---0---0---|----0---0---0-0-0--o|
G|--4---4-4---4-4-4---|--2---2-2---2-2-2---|--1---1-1---1-1-1---|----1-1-1---1-1-1---|
D|--4---4-4---4-4-4---|--4---4-4---4-4-4---|--2---2-2---2-2-2---|----2-2-2---2-2-2---|
A|o-2---2-2---2-2-2---|--4---4-4---4-4-4---|--2---2-2---2-2-2---|----2-2-2---2-2-2--o|
E|--------------------|--------------------|--0---0-0---0-0-0---|----0-0-0---0-0-0---|

    Q   E Q   E E E      E E E Q   E E E
e|--3---3-3---3-3-3---|--------------------|
B|--3---3-3---3-3-3---|--3-3-3-2---2-2-2---|
G|--0---0-0---0-0-0---|--2-2-2-2---2-2-2---|
D|--0---0-0---0-0-0---|--2-2-2-2---2-2-2---|
A|--x---x-x---x-x-x---|--0-0-0-0---0-0-0---|
E|--3---3-3---3-3-3---|--------------------|


[Post-Chorus]
  Gtr 2
    Q   E Q   E E E      E   E E Q   E  E E      Q   E Q   E E E     +E E E Q   E E E
e|--------2-----------|----------4------------|--------2-------2---|--------2-----------|
B|--4-4-4-4---4---4---|------5---5---5----5---|----5---5---5---5---|----5---5---5---5---|
G|--4---4-----4-4-4---|--4/6-6-6-----6--6-6---|--4-4-4-----4-4-----|----4-4-----4-4-4---|
D|--------------------|-----------------------|--------------------|--------------------|
A|--------------------|-----------------------|--------------------|--------------------|
E|--------------------|-----------------------|--------------------|--------------------|
 |                    |                       |                    |                    |
 |Gtr 3               |                       |                    |                    |
 |  Q   E Q   E E E   |  E   E E Q   S E. E   |  E E E Q   E Q     |  Q   E Q   E E E   |
e|--------------------|-----------------------|--------------------|--------------------|
B|--------------------|-----------------------|--------------------|--------------------|
G|--4---4-4---4-4-4---|--4--/6-6-6---6b7--6---|--6\4-4-4---4-------|------4-4---4-4-4---|
D|--x---x-x---x-x-x---|--x---x-x-x---x-x--x---|--x-x-x-x---x-------|------x-x---x-x-x---|
A|--2---2-2---2-2-2---|--2--/4-4-4---4b5--4---|--4\2-2-2---2-0-----|------2-2---2-2-2---|        
E|--------------------|-----------------------|--------------------|--4-----------------|

    Q   E Q   E E E      E   E E Q   E   E E      Q   E Q   E E E     +E E E Q   E E E
e|--------2-----------|----------4-------------|--------2-------2---|--------2-----------|
B|--4-4-4-4---4---4---|------5---5---5-----5---|----5---5---5---5---|----5---5---5---5---|
G|--4---4-----4-4-4---|--4/6-6-6-----6---6-6---|--4-4-4-----4-4-----|----4-4-----4-4-4---|
D|--------------------|------------------------|--------------------|--------------------|
A|--------------------|------------------------|--------------------|--------------------|
E|--------------------|------------------------|--------------------|--------------------|
 |                    |                        |                    |                    |
 |  Q   E Q   E E E   |  E   E E Q   S S E E   |  E E E Q   E E E   | +E E E Q   E E E   |
e|--------------------|------------------------|--------------------|--------------------|
B|--------------------|------------------------|--------------------|--------------------|[Play an octave at
G|--4---4-4---4-4-4---|--4--/6-6-6---6b7r6-6---|--6\4-4-4---4-4-4---|----4-4-4---4-4-4---|   the start of
D|--x---x-x---x-x-x---|--x---x-x-x---x-x-x-x---|--x-x-x-x---x-x-x---|----x-x-x---x-x-x---|      verse]
A|--2---2-2---2-2-2---|--2--/4-4-4---4b5r4-4---|--4\2-2-2---2-2-2---|----2-2-2---2-2-2---|
E|--------------------|------------------------|--------------------|--------------------|


[Verse 2]
  Gtr 1
    E E E E +H           E   E E E +H           E E E E +H           E E E E +H        (x3)
e|--------2-----------|----------0-----------|--------0-----------|--------0-----------|
B|o---2---2-----------|------0---0-----------|----0---0-----------|----0---0----------o|
G|----4---4-----------|------2---2-----------|----1---1-----------|----1---1-----------|
D|--4-4-4-4-----------|--4---4-4-4-----------|--2-2-2-2-----------|--2-2-2-2-----------|
A|o-2---2-------------|--4-----4-------------|--2---2-------------|--2---2------------o|
E|--------------------|----------------------|--0-----------------|--0-----------------|
 |                    |                      |                    |                    |
 |Gtr 2               |                      |                    |                    |
 |  E E E E +H        |  E   E E E +H        |  E E E E +H        |  E E E E +H        |
e|--------2-----------|----------4-----------|--------2-----------|--------2-----------|
B|o---4---4-----------|------5---5-----------|----5---5-----------|----5---5----------o|
G|--4---4-------------|--4/6---6-------------|--4---4-------------|--4---4-------------|
D|--------------------|----------------------|--------------------|--------------------|
A|o-------------------|----------------------|--------------------|-------------------o|
E|--------------------|----------------------|--------------------|--------------------|

    E E E E +H           E   E E E +H           E E E Q   E E E     +E E E Q   E E E
e|--------2-----------|----------0-----------|--------0---0---0---|----0---0---0---0---| 
B|----2---2-----------|------0---0-----------|----0---0---0---0---|----0---0---0---0---|
G|----4---4-----------|------2---2-----------|----1---1---1-1-1---|----1-1-1---1-1-1---|
D|--4-4-4-4-----------|--4---4-4-4-----------|--2-2-2-2---2-2-2---|----2-2-2---2-2-2---|
A|--2---2-------------|--4-----4-------------|--2---2-2---2-2-2---|----2-2-2---2-2-2---|
E|--------------------|----------------------|--0-----0---0-0-0---|----0-0-0---0-0-0---|
 |                    |                      |                    |                    |
 |  E E E E +H        |  E   E E E +H        |  E E E Q   E E E   | +E E E Q   E E E   |
e|--------2-----------|----------4-----------|--------2-------2---|--------2-----------|
B|----4---4-----------|------5---5-----------|----5---5---5---5---|----5---5---5---5---|
G|--4---4-------------|--4/6---6-------------|--4---4-----4-4-----|----4-4-----4-4-4---|
D|--------------------|----------------------|--------------------|--------------------|
A|--------------------|----------------------|--------------------|--------------------|
E|--------------------|----------------------|--------------------|--------------------|


[Chorus 2]
  Gtr 1
    Q   E Q   E E E      Q     E Q   E E E      Q   E Q   E E E     +E E E Q   E E E   (x3)
e|--------0---0-0-0---|----------0---0-0-0---|--------0---0---0---|----0---0---0-0-0---|
B|o-------0---0-0-0---|----------0---0-0-0---|--------0---0---0---|----0---0---0-0-0--o|
G|--4---4-4---4-4-4---|--2-----2-2---2-2-2---|--1---1-1---1-1-1---|----1-1-1---1-1-1---|
D|--4---4-4---4-4-4---|--4-----4-4---4-4-4---|--2---2-2---2-2-2---|----2-2-2---2-2-2---|
A|o-2---2-2---2-2-2---|--4-----4-4---4-4-4---|--2---2-2---2-2-2---|----2-2-2---2-2-2--o|
E|--------------------|----------------------|--0---0-0---0-0-0---|----0-0-0---0-0-0---|
 |                    |                      |                    |                    |
 |Gtr 2               |                      |                    |                    |
 |  Q   E Q   E E E   |  E   E E Q   E E E   |  Q   E Q   E E E   | +E E E Q   E E E   |
e|--------2-----------|----------4-----------|--------2-------2---|--------2-----------|
B|o-4-4-4-4---4---4---|------5---5---5---5---|----5---5---5---5---|----5---5---5---5--o|
G|--4---4-----4-4-4---|--4/6-6-6-----6-6-6---|--4-4-4-----4-4-----|----4-4-----4-4-4---|
D|--------------------|----------------------|--------------------|--------------------|
A|o-------------------|----------------------|--------------------|-------------------o|
E|--------------------|----------------------|--------------------|--------------------|

  Gtr 1 & 2
    Q   E Q   E E E      E E E Q   E E E      Q   E Q   E E E      Q   E Q   E E E      E E E Q   E E E
e|--3---3-3---3-3-3---|--------------------|--------0---0---0---|--3---3-3---3-3-3---|--------------------|
B|--3---3-3---3-3-3---|--3-3-3-2---2-2-2---|------0-0---0---0---|--3---3-3---3-3-3---|--3-3-3-2---2-2-2---|
G|--0---0-0---0-0-0---|--2-2-2-2---2-2-2---|------x-x---x-------|--0---0-0---0-0-0---|--2-2-2-2---2-2-2---|
D|--0---0-0---0-0-0---|--2-2-2-2---2-2-2---|--2---2-2---2-------|--0---0-0---0-0-0---|--2-2-2-2---2-2-2---|
A|--x---x-x---x-x-x---|--0-0-0-0---0-0-0---|--2---2-2---2-------|--x---x-x---x-x-x---|--0-0-0-0---0-0-0---|
E|--3---3-3---3-3-3---|--------------------|--0---0-0---0-2-----|--3---3-3---3-3-3---|--------------------|


[Bridge]
  Gtr 1 & 2
    Q   E Q   E E E      Q   E Q   E E E      Q   E Q   E E E      Q   E Q   E E E
e|--------0---0---0---|--------3---3---3---|--------2---2---2---|--------0---0---0---|
B|o-----0-0---0---0---|------3-3---3---3---|------3-3---3---3---|------0-0---0---0---|
G|--4---4-4---4-4-4---|--0---0-0---0-0-0---|--2---2-2---2-2-2---|------x-x---x-------|
D|--4---4-4---4-4-4---|--0---0-0---0-0-0---|--0---0-0---0-0-0---|--2---2-2---2-------|
A|o-2---2-2---2-2-2---|--x---x-x---x-x-x---|--------------------|--2---2-2---2-------|
E|--------------------|--3---3-3---3-3-3---|--------------------|--0---0-0---0-2-----|

    Q   E Q   E E E      E E E Q   E E E   (x2)
e|--3---3-3---3-3-3---|--------------------|
B|--3---3-3---3-3-3---|--3-3-3-2---2-2-2--o|
G|--0---0-0---0-0-0---|--2-2-2-2---2-2-2---|
D|--0---0-0---0-0-0---|--2-2-2-2---2-2-2---|
A|--x---x-x---x-x-x---|--0-0-0-0---0-0-0--o|
E|--3---3-3---3-3-3---|--------------------|


[Chorus 3]
  Gtr 2
    Q   E Q   E E E      E   E E Q   E  E E      Q   E Q   E E E     +E E E Q   E E E    
e|--------2-----------|----------4------------|--------2-------2---|--------2-----------|
B|o-4-4-4-4---4---4---|------5---5---5----5---|----5---5---5---5---|----5---5---5---5---|
G|--4---4-----4-4-4---|--4/6-6-6-----6--6-6---|--4-4-4-----4-4-----|----4-4-----4-4-4---|
D|--------------------|-----------------------|--------------------|--------------------|
A|o-------------------|-----------------------|--------------------|--------------------|
E|--------------------|-----------------------|--------------------|--------------------|
 |                    |                       |                    |                    |
 |Gtr 3               |                       |                    |                    |
 |  Q   E Q   E E E   |  E   E E Q   S E. E   |  E E E Q   E E E   | +E E E Q   E E E   |
e|--------------------|-----------------------|--------------------|--------------------|
B|o-------------------|-----------------------|--------------------|--------------------|
G|--4---4-4---4-4-4---|--4--/6-6-6---6b7--6---|--6\4-4-4---4-4-4---|----4-4-4---4-4-4---|
D|--x---x-x---x-x-x---|--x---x-x-x---x-x--x---|--x-x-x-x---x-x-x---|----x-x-x---x-x-x---|
A|o-2---2-2---2-2-2---|--2--/4-4-4---4b5--4---|--4\2-2-2---2-2-2---|----2-2-2---2-2-2---|        
E|--------------------|-----------------------|--------------------|--------------------|

    Q   E Q   E E E   |  E   E E Q   E   E E      Q   E Q   E E E     +E E E Q   E E E    
e|--------2-----------|----------4-------------|--------2-------2---|--------2-----------|
B|--4-4-4-4---4---4---|------5---5---5-----5---|----5---5---5---5---|----5---5---5---5---|
G|--4---4-----4-4-4---|--4/6-6-6-----6---6-6---|--4-4-4-----4-4-----|----4-4-----4-4-4---|
D|--------------------|------------------------|--------------------|--------------------|
A|--------------------|------------------------|--------------------|--------------------|
E|--------------------|------------------------|--------------------|--------------------|
 |                    |                        |                    |                    |
 |  Q   E Q   E E E   |  E   E E Q   S S E E   |  E E E Q   E Q     |  Q   E Q   E E E   |
e|--------------------|------------------------|--------------------|--------------------|
B|--------------------|------------------------|--------------------|--------------------|
G|--4---4-4---4-4-4---|--4--/6-6-6---6b7r6-6---|--6\4-4-4---4-------|------4-4---4-4-4---|
D|--x---x-x---x-x-x---|--x---x-x-x---x-x-x-x---|--x-x-x-x---x-------|------x-x---x-x-x---|
A|--2---2-2---2-2-2---|--2--/4-4-4---4b5r4-4---|--4\2-2-2---2-0-----|------2-2---2-2-2---|
E|--------------------|------------------------|--------------------|--4-----------------|

    Q   E Q   E E E      E   E E Q   E  E E      Q   E Q   E E E     +E E E Q   E E E    
e|--------2-----------|----------4------------|--------2-------2---|--------2-----------|
B|--4-4-4-4---4---4---|------5---5---5----5---|----5---5---5---5---|----5---5---5---5---|
G|--4---4-----4-4-4---|--4/6-6-6-----6--6-6---|--4-4-4-----4-4-----|----4-4-----4-4-4---|
D|--------------------|-----------------------|--------------------|--------------------|
A|--------------------|-----------------------|--------------------|--------------------|
E|--------------------|-----------------------|--------------------|--------------------|
 |                    |                       |                    |                    |
 |  Q   E Q   E E E   |  E   E E Q   S E. E   |  E E E Q   E E E   | +E E E Q   E Q     |
e|--------------------|-----------------------|--------------------|--------------------|
B|--------------------|-----------------------|--------------------|--------------------|
G|--4---4-4---4-4-4---|--4--/6-6-6---6b7--6---|--6\4-4-4---4-4-4---|----4-4-4---4-------|
D|--x---x-x---x-x-x---|--x---x-x-x---x-x--x---|--x-x-x-x---x-x-x---|----x-x-x---x-------|
A|--2---2-2---2-2-2---|--2--/4-4-4---4b5--4---|--4\2-2-2---2-2-2---|----2-2-2---2-------|        
E|--------------------|-----------------------|--------------------|-------------/15\---|

  Gtr 1 & 2 & 3
    Q   E Q   E E E      E E E Q   E E E   (x2)
e|--3---3-3---3-3-3---|--------------------|
B|--3---3-3---3-3-3---|--3-3-3-2---2-2-2--o|
G|--0---0-0---0-0-0---|--2-2-2-2---2-2-2---|  [For clarlity: You are repeating the entire
D|--0---0-0---0-0-0---|--2-2-2-2---2-2-2---|               chorus again]
A|--x---x-x---x-x-x---|--0-0-0-0---0-0-0--o|
E|--3---3-3---3-3-3---|--------------------|

    Q   E Q   E E E      Q   E Q   E E E      E E E Q   E E E   (x2)
e|--------0---0---0---|--3---3-3---3-3-3---|--------------------|
B|o-----0-0---0---0---|--3---3-3---3-3-3---|--3-3-3-2---2-2-2--o|  [Gtr 3 plays the octave on the 2nd fret
G|------x-x---x-------|--0---0-0---0-0-0---|--2-2-2-2---2-2-2---|    of the A string at the start of the
D|--2---2-2---2-------|--0---0-0---0-0-0---|--2-2-2-2---2-2-2---|                  outro]
A|o-2---2-2---2-------|--x---x-x---x-x-x---|--0-0-0-0---0-0-0--o|
E|--0---0-0---0-2-----|--3---3-3---3-3-3---|--------------------|


[Outro]
  Gtr 1
    E E E E +H           E E E E +H           E E E E +H           E E E E +H
e|--------2-----------|----2---------------|----2---------------|----2---------------|
B|----2---2-----------|----2---2-----------|----2---2-----------|----2---2-----------|
G|----4---4-----------|----4---4-----------|----4---4-----------|----4---4-----------|
D|--4-4-4-4-----------|--4-4-4-4-----------|--4-4-4-4-----------|--4-4-4-4-----------|
A|--2---2-------------|--2---2-------------|--2---2-------------|--2---2-------------|
E|--------------------|--------------------|--------------------|--------------------|
 |                    |                    |                    |                    |
 |Gtr 2               |                    |                    |                    |
 |  E E E Q   Q.      |  E E E Q   Q.      |  E E E Q   Q.      |  E E E E +H        |
e|--------2-----------|--------2-----------|--------2-----------|--------2-----------|
B|----2---2---2-------|----2---2---2-------|----2---2---2-------|----2---2-----------|
G|--4---4-------------|--4---4-------------|--4---4-------------|--4---4-------------|
D|--------------------|--------------------|--------------------|--------------------|
A|--------------------|--------------------|--------------------|--------------------|
E|--------------------|--------------------|--------------------|--------------------|

    H.          Q       +W
e|--------------------|--------------------||
B|--------------2-----|--------------------||
G|--4-----------4-----|--------------------||
D|--4-----------4-----|--------------------||
A|--2-----------2-----|--------------------||
E|--------------------|--------------------||
 |                    |                    ||
 |  Q.    Q.    Q     | +W                 ||
e|--------------2-----|--------------------||
B|--------4-----2-----|--------------------||
G|--4-----4-----4-----|--------------------||
D|--------------------|--------------------||
A|--------------------|--------------------||
E|--------------------|--------------------||


************************************

|  \   Slide down
|  x   Dead note
|  b   Bend
|  r   Release Bend
|  p   Pull-off
|  /   Slide up
|  S   Sixteenth note
|  E   Eighth note
|  Q   Quarter note
|  H   Half note
|  W   Whole note
|  .   Dotted note
| (N)  Rest
|  +   Add note value
|o o|  Reprise

************************************












            
            
Suggest correction
Creating personal tab
Creating personal tab
You can edit any tab online and save it as your Personal.

You can edit, replace or remove any tab part or add personal notes – all changes will be seen only by you.

Personal tabs can be accessed anytime from any device, even offline.
Learn more »
Give kudos to tab author, rate the tab!
1 2 3 4 5
comments
print report bad tab
guest
You may want to rate the tab now too:
select rating
Wanna post a correction for this tab? Suggest correction