Oops, an error
Loading. Please wait.

Let It Die Bass Tab

version 1
version 1

Whole song

10,430 views 9 this week
no commentswrite comment
1 2 3 4 5
x 9
add to favorites
launch autoscroll
font size
0
reset
guitar tuner
Autoscroll
slow
fast
+/-
esc
set tempo
stop
Help us to improve Ultimate-Guitar.com Take our survey!
×
Author
I noticed there were no bass tabs for this song on this site,
so I got this from 911.tabs.

This is not tabbed out by me.
--------------------------------------------------------------
|                 Foo Fighters - Let It Die                  |
--------------------------------------------------------------

Tabbed by: hewhoknowsall 

Verse: No Bass; Rest until 01:40 

                                  (Acoustic Guitar Drops out here| (01:55)) 
                                                                 v 
G|----------------|----------------|----------------|------------|-----| 
D|----------------|----------------|----------------|------------|-----| 
A|----------------|----------------|----------------|------------|-----| 
E|3333333333333333|3333333333333333|3333333333333333|333333333333|3-3-3| 

G|-----------------|-----------------|-----------------|-----------------| 
D|-----------------|--R--E---S---T---|--R--E---S---T---|-----------------| 
A|-----------------|-----------------|-----------------|-----------------| 
E|--------------3--|-----------------|-----------------|----------3-3-3--| 
  1 + 2 + 3 + 4 +                                       1 + 2 + 3 + 4 + 

G|-----------------|-----------------|-----------------|-----------------| 
D|--R--E---S---T---|-----------------|--R--E---S---T---|-----------------| 
A|-----------------|-----------------|-----------------|--------------6--| 
E|-----------------|--------------3--|-----------------|-----------------| 
                    1 + 2 + 3 + 4 +                     1 + 2 + 3 + 4 + 

Chorus (02:11) 
G|-----------------|-----------------|-----------------|-----------------| 
D|-----------------|-----------------|-----------------|-----------------| 
A|(6)----------\---|-----------------|3----------------|5----------------| 
E|-----------------|1----------------|-----------------|-----------------| 

G|-----------------|-----------------|-----------------|-----------------| 
D|-----------------|-----------------|-----------------|-----------------| 
A|6---6---6---6--6/|8---8---8---8--8\|3---3---3---3----|5---5---5---5----| 
E|-----------------|-----------------|-----------------|-----------------| 

G|-----------------|-----------------|-----------------|-----------------| 
D|-----------------|-----------------|-----------------|-----------------| 
A|6---6---6---6--6/|8---8---8---8--8\|3-3-3---3---3----|5---5---5---5----| 
E|-----------------|-----------------|-----------------|-----------------| 
                                                       (02:40) 
G|-----------------|-----------------|-----------------|-----------------| 
D|-----------------|-----------------|--R--E---S---T---|-----------------| 
A|6-6-6-6-6-6-6-6--|8-8-8-8-8-8-8\---|-----------------|-----------------| 
E|-----------------|-----------------|-----------------|3---3---3---3-1--| 
                                                        1 + 2 + 3 + 4 + 

G|-----------------|-----------------|-----------------|-----------------| 
D|-----------------|-----------------|-----------------|-----------------| 
A|-----------------|-----------------|-----------------|-----------------| 
E|3-3-3---3-3-3-3--|3---3---3-3-3-1--|3---3---3-3-3----|3---3---3-3/6--| 
  1 + 2 + 3 + 4 +   1 + 2 + 3 + 4 +                     1 + 2 + 3 + 4 + 

G|-----------------|-----------------|-----------------|-----------------| 
D|-----------------|-----------------|-----------------|-----------------| 
A|-----------------|-----------------|1-1-1p0----------|------2---3--/6--| 
E|3-3-3-1-3-1-3----|3-3-3---3---3-3--|--------1---1----|3---3------------| 
  1 + 2 + 3 + 4 +   1 + 2 + 3 + 4 +   1 + 2 + 3 + 4 +   1 + 2 + 3 + 4 + 

G|-----------------|-----------------|-----------------|-----------------| 
D|-----------------|-----------------|-----------------|-----------------| 
A|(6)6-6-5-1-3-5--\|3-3-3-2-------1--|1-1-1-------0----|------2---/3--/6-| 
E|-----------------|----------3------|--------1--3-----|3-3-3------------| 
  1  + 2 + 3 + 4 +  1 + 2 + 3 + 4 +   1 + 2 + 3 + 4 +   1 + 2 + 3 + 4 + 

G|-----------------|-----------------| 
D|-----------------|-----------------| 
A|6-6-6-5-1-3-5\---|3-3-3-2----------| 
E|-----------------|----------3------| 
  1 + 2 + 3 + 4 + 

Chorus 2 (03:09) 
G|-----------------|-----------------|-----------------|-----------------| 
D|1-1-1-1-1-1-1-1--|3-3-3-3-3-3-3-3/-|-----------------|-----------------| 
A|-----------------|-----------------|3-3-3-3-3-3-3-3--|5---5---5---5----| 
E|-----------------|-----------------|-----------------|--5---5---5---5\-| 

Repeat Chorus 2 x3 + First 2 bars once more with a slide up at the end 

Chorus 1 (03:36) 
G|-----------------|-----------------|-----------------|-----------------| 
D|-----------------|-----------------|-----------------|-----------------| 
A|1-1-1-------0----|------2---3---/6-|6-6-6-5-1---5\---|3-3-3-2-------1--| 
E|------1-1--------|3-3-3---3---3----|-----------------|----------3------| 

Repeat Chorus 1 x 4 but stop on beat 3 in bar one last time
Suggest correction
comments
print report bad tab
guest
You may want to rate the tab now too:
select rating
Wanna post a correction for this tab? Suggest correction