Oops, an error
Loading. Please wait.

Let It Die Tab

version 3
version 3

Whole song

12,817 views 30 this week
no commentswrite comment
1 2 3 4 5
accurate
x 3
add to favorites
launch autoscroll
font size
0
reset
how to read this tab
guitar tuner
Tab Pro tools
  • play this tab
  • loop segment
  • change instrument
  • show fretboard
  • metronome
Autoscroll
slow
fast
+/-
esc
set tempo
stop
Contributor
Song: Let It Die
Artist: Foo Fighters
Album: Echoes, Silence, Patience & Grace

Tabbed by ben3296(bptrules@hotmail.com)

Standard Tuning (eBGDAE)
4/4
Moderate Speed (about 125 bpm)

Guitar 1 - Acoustic (let ring throughout)
Guitar 2 - Electric with clean tone
Guitars 3 & 4 - Electric with distortion

/ - slide up
\ - slide down
PM - palm mute




Intro (Guitar 1)
----------------
e-|--8-------------|------5---------|--8-------------|------5---------|
B-|----6-----------|----------3-----|----6-----------|----------3-----|
G-|------0---0---0-|--0---------0---|------0---0---0-|--0---------0---|play
D-|8-----------7---|5---5--------5/8|------------7---|5---5---------5/|twice
A-|--------8-------|----------------|--------8-------|----------------|
E-|----------------|----------------|----------------|----------------|




Verse (Guitar 1)
----------------
e-|--8-------------|------5---------|--8-------------|------5---------|
B-|----6-----------|----------3-----|----6-----------|----------3-----|
G-|------0---0---0-|--0---------0---|------0---0---0-|--0---------0---|play
D-|8-----------7---|5---5--------5/8|------------7---|5---5---------5/|four
A-|--------8-------|----------------|--------8-------|----------------|times
E-|----------------|----------------|----------------|----------------|




Pre-Chorus (Guitar 2)
---------------------
e-|--8-------------|----------------|----------------|----------------|
B-|----6-----------|--8---------8---|11--------------|--8-------------|
G-|------0---0---0-|----0---0---0---|--0---0---0---0-|----0---0---0---|
D-|8-----------7---|------9---10-/13|----13--8---12--|10----12--9---8-|
A-|--------8-------|10--------------|----------------|----------10----|
E-|----------------|----------------|----------------|----------------|

e-|----------------|----------------|----------------|----------------|
B-|6---------------|--8---------8---|11--------------|--8-------------|
G-|--0---0---0---0-|----0---0---0---|--0---0---0---0-|----0---0---0---|
D-|----8-------7---|------9---10-/13|----13--8---12--|10----12--9---0-|
A-|--------8-------|10--------------|----------------|----------10----|
E-|----------------|----------------|----------------|----------------|




Interlude (Guitar 1)
--------------------
e-|--8-------------|------5---------|--8-------------|------5---------|
B-|----6-----------|----------3-----|----6-----------|----------3-----|
G-|------0---0---0-|--0---------0---|------0---0---0-|--0---------0---| 
D-|8-----------7---|5---5--------5/8|------------7---|5---5---------5/| 
A-|--------8-------|----------------|--------8-------|----------------|
E-|----------------|----------------|----------------|----------------|




Verse (Guitar 1)
----------------
e-|--8-------------|------5---------|--8-------------|------5---------|
B-|----6-----------|----------3-----|----6-----------|----------3-----|
G-|------0---0---0-|--0---------0---|------0---0---0-|--0---------0---|play
D-|8-----------7---|5---5--------5/8|------------7---|5---5---------5/|four
A-|--------8-------|----------------|--------8-------|----------------|times
E-|----------------|----------------|----------------|----------------|




Pre-Chorus (Guitar 1)
---------------------
e-|--8-------------|----------------|----------------|----------------|
B-|----6-----------|--8---------8---|11--------------|--8-------------|
G-|------0---0---0-|----0---0---0---|--0---0---0---0-|----0---0---0---|
D-|8-----------7---|------9---10-/13|----13--8---12--|10----12--9---8-|
A-|--------8-------|10--------------|----------------|----------10----|
E-|----------------|----------------|----------------|----------------|

e-|----------------|----------------|----------------|----------------|
B-|6---------------|--8---------8---|11--------------|--8-------------|
G-|--0---0---0---0-|----0---0---0---|--0---0---0---0-|----0---0-------|
D-|----8-------7---|------9---10-/13|----13--8---12--|10----12--------|
A-|--------8-------|10--------------|----------------|----------10----|
E-|----------------|----------------|----------------|----------------|




Bridge (guitar 3)
-----------------
e-|---|----------------|----------------|----------------|----------------|
B-|---|----------------|----------------|----------------|----------------|
G-|---|----------------|----------------|----------------|----------------|
D-|555|5-5-5-5-5-5-5-5-|5-5-5-5-5-5-5-5-|5-5-5-5-5-5-5-5-|5-5-5-5-5-5-5-5-|
A-|555|5-5-5-5-5-5-5-5-|5-5-5-5-5-5-5-5-|5-5-5-5-5-5-5-5-|5-5-5-5-5-5-5-5-|
E-|333|3-3-3-3-3-3-3-3-|3-3-3-3-3-3-3-3-|3-3-3-3-3-3-3-3-|3-3-3-3-3-3-3-3-|
       PM____________   PM__________________________________________


e-|----------------|----------------|----------------|----------------|
B-|----------------|----------------|----------------|----------------|
G-|----------------|----------------|----------------|----------------|
D-|5-5-5-5-5-5-5-5-|5-5-5-5-5-5-5-5-|5-5-5-5-5-5-5-5-|5-5-5-5-5-5-5---|
A-|5-5-5-5-5-5-5-5-|5-5-5-5-5-5-5-5-|5-5-5-5-5-5-5-5-|5-5-5-5-5-5-5---|
E-|3-3-3-3-3-3-3-3-|3-3-3-3-3-3-3-3-|3-3-3-3-3-3-3-3-|3-3-3-3-3-3-3---|
   PM_____________________________   PM____________________________




Chorus (Guitars 1 & 2)
----------------------
                                  (guitar 2)
e-|--|--------6-------|------8---------|--------3-------|------5---------|
B-|4-|----------------|6-------------1-|----------------|3-------------4-|
G-|0-|----------------|0-------------0-|----------------|0-------------0-|
D-|5-|----------------|7-------------2-|----------------|4-------------5-|
A-|6-|----------------|8-------------3-|----------------|5-------------6-|
E-|--|----------------|----------------|----------------|----------------|

                                  (guitar 1)
e-|--|----------------|----------------|----------------|----------------|
B-|4-|----------------|--6-----6-------|--1---1---1-----|--------------4-|
G-|--|--3---3---3---3-|----5-----5-----|--0-------0-----|--2---2---2-----|
D-|--|----5---5---5---|----------------|----2-------2---|----4---4-------|
A-|6-|----------------/8-----8-----8\3-|--------3-----3-/5-----------5-6-|
E-|--|----------------|----------------|----------------|----------------|




                                  (guitar 2)
e-|--------6-------|------8---------|--------3-------|------5---------|
B-|----------------|6-------------1-|----------------|3-------------4-|
G-|----------------|0-------------0-|----------------|0-------------0-|
D-|----------------|7-------------2-|----------------|4-------------5-|
A-|----------------|8-------------3-|----------------|5-------------6-|
E-|----------------|----------------|----------------|----------------|

                                  (guitar 1)
e-|----------------|----------------|----------------|----------------|
B-|----------------|--6-----6-------|--1---1---1-----|--------------4-|
G-|--3---3---3---3-|----5-----5-----|--0-------0-----|--2---2---2-----|
D-|----5---5---5---|----------------|----2-------2---|----4---4-------|
A-|----------------/8-----8-----8\3-|--------3-----3-/5-----------5-6-|
E-|----------------|----------------|----------------|----------------|




                                  (guitar 2)
e-|--------6-------|------8---------|--------3-------|------5---------|
B-|----------------|6-------------1-|----------------|3-------------4-|
G-|----------------|0-------------0-|----------------|0-------------0-|
D-|----------------|7-------------2-|----------------|4-------------5-|
A-|----------------|8-------------3-|----------------|5-------------6-|
E-|----------------|----------------|----------------|----------------|

                                  (guitar 1)
e-|----------------|----------------|----------------|----------------|
B-|----------------|--6-----6-------|--1---1---1-----|--------------4-|
G-|--3---3---3---3-|----5-----5-----|--0-------0-----|--2---2---2-----|
D-|----5---5---5---|----------------|----2-------2---|----4---4-------|
A-|----------------/8-----8-----8\3-|--------3-----3-/5-----------5-6-|
E-|----------------|----------------|----------------|----------------|




                       (guitar 2)
e-|--------6-------|----------------|----------------|
B-|----------------|----------------|----------------|
G-|----------------|----5-5-5-5-5---|----------------|
D-|----------------|7-7-7-7-7-7-7---|----------------|
A-|----------------|8-8-8-8-8-8-8---|----------------|
E-|----------------|----------------|----------------|

                       (guitar 1)
e-|----------------|----------------|----------------|
B-|----------------|----------------|--6-------------|
G-|--3---3---3-3-3-|------5---5-----|----0-----0---0-|
D-|----5---5-------|--7-------------|8-----0-----7---|
A-|----------------|8---8-------8---|--------8-------|
E-|----------------|----------------|----------------|





Interlude (Guitars 3 & 4)
-------------------------
e-|----------------|----------------|----------------|----------------|
B-|----------------|----------------|--------------6-|6-6-6-----------|
G-|0-0-0-4-0-5-0-3-|3-3-3-0-3-0-7-0-|5-5-5-7-0-4-0-3-|3-3-3-0---0---0-|
D-|5-5-5-5-0-5-0-5-|5-5-5-0-3-0-5-0-|5-5-5-5-0-5-0-5-|5-5-5-0-3-0-7-0-|
A-|----------------|----------------|----------------|----------------|
E-|----------------|----------------|----------------|----------------|

e-|----------------|----------------|----------------|
B-|----------------|----------------|--------------6-|
G-|0-0-0-4-0-5-0-3-|3-3-3-0-3-0-7-0-|5-5-5-7-0-4-0-3-|
D-|5-5-5-5-0-5-0-5-|5-5-5-0-3-0-5-0-|5-5-5-5-0-5-0-5-|
A-|----------------|----------------|----------------|
E-|----------------|----------------|----------------|




Verse (Guitars 3 & 4)
---------------------
e-|----------------|----------------|----------------|----------------|
B-|6-6-6-----------|----------------|----------------|--------------6-|
G-|3-3-3-0---0---0-|0-0-0-4-0-5-0-3-|3-3-3-0-3-0-7-0-|5-5-5-7-0-4-0-3-|
D-|5-5-5-0-3-0-7-0-|5-5-5-5-0-5-0-5-|5-5-5-0-3-0-5-0-|5-5-5-5-0-5-0-5-|
A-|----------------|----------------|----------------|----------------|
E-|----------------|----------------|----------------|----------------|

e-|----------------|----------------|----------------|----------------|
B-|6-6-6-----------|----------------|----------------|----------------|
G-|3-3-3-0---0---0-|0-0-0-4-0-5-0-3-|3-3-3-0-3-0-7-0-|5-5-5-7-0-4-----|
D-|5-5-5-0-3-0-7-0-|5-5-5-5-0-5-0-5-|5-5-5-0-3-0-5-0-|5-5-5-5-0-5-----|
A-|----------------|----------------|----------------|----------------|
E-|----------------|----------------|----------------|----------------|




Chorus (Guitars 3 & 4)
----------------------
e-|----------------|----------------|----------------|----------------|
B-|----------------|----------------|----------------|----------------|
G-|8-8-8-8-8-8-8-8-|101010101010100-|5-5-5-5-5-5-5-5-|7-7-7-7-7-7-7-0-|play
D-|8-8-8-8-8-8-8-8-|101010101010100-|5-5-5-5-5-5-5-5-|7-7-7-7-7-7-7-0-|four
A-|6-6-6-6-6-6-6-6-|8-8-8-8-8-8-8-0-|3-3-3-3-3-3-3-3-|5-5-5-5-5-5-5-0-|times
E-|6-6-6-6-6-6-6-6-|8-8-8-8-8-8-8-0-|3-3-3-3-3-3-3-3-|5-5-5-5-5-5-5-0-|





Outro (Guitars 3 & 4)
---------------------
e-|----------------|----------------|----------------|----------------|
B-|6-6-6-----------|----------------|----------------|--------------6-|
G-|3-3-3-0---0---0-|0-0-0-4-0-5-0-3-|3-3-3-0-3-0-7-0-|5-5-5-7-0-4-0-3-|play
D-|5-5-5-0-3-0-7-0-|5-5-5-5-0-5-0-5-|5-5-5-0-3-0-5-0-|5-5-5-5-0-5-0-5-|three
A-|----------------|----------------|----------------|----------------|times
E-|----------------|----------------|----------------|----------------|


e-|----------------|
B-|6-6-6-----------|
G-|3-3-3-0---0-----|
D-|5-5-5-0-3-0-7---|
A-|----------------|
E-|----------------|



Hope this helps learn you the song
Its not as tricky as it may look!
I think its all correct
Please leave comments and ratings and correct any mistakes i may have made
Thanks
comments
We did not receive enough feedback on this tab! Please rate:
print report bad tab
1 2 3 4 5
I want to post or [tab]
guest
You may want to rate the tab now too:
select rating
Please do not post tabs as comments. Select "correction" instead!