Oops, an error
Loading. Please wait.
We have an official Long Road To Ruin tab made by UG professional guitarists. Check out the tab »
×
12,444 views 6 this week
6 commentsread comments
1 2 3 4 5
x 7
add to favorites
×
Save as Personal and add changes to this tab that will be seen only by you. Learn more ›
×
You can save this tab as Personal to edit and correct it or add notes. All changes will be seen only by you. Learn more »
launch autoscroll
font size
0
reset
how to read this tab
guitar tuner
backing track
0:00
0:00
edit
Autoscroll
slow
fast
+/-
esc
set tempo
stop
Author
Difficulty
Foo Fighters - Long Road To Ruin (Echoes, Silence, Patience & Grace)
Tabbed by: Ezequiel Gomez de Lima

Intro/Verse
-----------

Guitar 1

|-----0---------3-|-----0-------------|
|-1-3---3-1-0-1---|-1-3---3-1-0-1-----|
|-----------------|-------------------|
|-----------------|----------------3--|
|-----------------|-------------------|
|-----------------|-------------------|


|-----0---------3-|-----0-------------|
|-1-3---3-1-0-1---|-1-3---3-1-0-1-1---|
|-----------------|-------------------|
|-----------------|-------------------|
|-----------------|-------------------|
|-----------------|-------------------|

Guitar 2

C
Hey now don't make a sound
                              F   
Say have you heard the news today
             
One flag was taken down
                         C
To raise another in its place
C
A heavy cross you bear
                           F
A stubborn heart remains unchanged

No harm, no life, no love

No stranger singing in your name

Pre-Chorus
----------

Guitar 1

|----------------------------|-------------------------------|
|----------------------------|-------------------------------|
|----------------------------|-------------------------------|
|----------------------------|----------------------7-7-7-7--|
|-0---0--2---2--3---3--2---2-|-0---0--2---2--3---3--5-5-5-5--|
|---1------3------5------3---|---1------3------5-------------|

Guitar 2

Am        Gsus4/B
Maybe the season
    C                    Gsus4/B
The colors change in the valley skies
Am            Gsus4/B
Dear God, I've sealed my fate
C
Running through hell
D
Heaven can wait

Chorus
------

F
Long road to ruin
C
There in your eyes
F                     C      C-Gsus4/B-
Under the cold streetlights
Am
No tomorrow
D              F
No dead end in sight

Chorus End (on F)

|---------------------------------|
|---------------------------------|
|---------------------------------|
|-3-3-3-3-5-5-5-5-7-7-7-7-9-9-9-9-|
|---------------------------------|
|-1-1-1-1-3-3-3-3-5-5-5-5-7-7-7-7-|


Verse 2
-------

Guitar 1

|-----0---------3-|-----0-------------|
|-1-3---3-1-0-1---|-1-3---3-1-0-1-----|
|-----------------|-------------------|
|-----------------|----------------3--|
|-----------------|-------------------|
|-----------------|-------------------|


|-----0---------3-|-----0-------------|
|-1-3---3-1-0-1---|-1-3---3-1-0-1-1---|
|-----------------|-------------------|
|-----------------|-------------------|
|-----------------|-------------------|
|-----------------|-------------------|

C
Let's say we take this town
                         F
No king or queen of any state
                  
Get up to shut it down
                               C
Open the streets and raise the gates

I know a wall to scale
                        F
I know a field without a name

Head on without a care

Before it's way too late


Pre-Verse
---------

Guitar 1

|----------------------------|-------------------------------|
|----------------------------|-------------------------------|
|----------------------------|-------------------------------|
|----------------------------|----------------------7-7-7-7--|
|-0---0--2---2--3---3--2---2-|-0---0--2---2--3---3--5-5-5-5--|
|---1------3------5------3---|---1------3------5-------------|

Am        Gsus4/B
Maybe the season
    C                    Gsus4/B
The colors change in the valley skies
Am            Gsus4/B
Dear God, I've sealed my fate
C
Running through hell
D
Heaven can wait

Chorus
------

F
Long road to ruin
C
There in your eyes
F                     C      C-Gsus4/B-
Under the cold streetlights
Am
No tomorrow
D              F
No dead end in sight

Chorus End (on F)

|---------------------------------|
|---------------------------------|
|---------------------------------|
|-3-3-3-3-5-5-5-5-7-7-7-7-9-9-9-9-|
|---------------------------------|
|-1-1-1-1-3-3-3-3-5-5-5-5-7-7-7-7-|


Bridge
------

Cadd9          Gsus4            Cadd9
For every piece to fall in place
        Gsus4           Cadd9
Forever gone without a trace
        Gsus4
Your horizon takes its shape
Am7/G                  Gsus4
No turning back, don't turn that page


Guitar 1

|----------------------------|-------------------------------|
|----------------------------|-------------------------------|
|----------------------------|-------------------------------|
|----------------------------|----------------------7-7-7-7--|
|-0---0--2---2--3---3--2---2-|-0---0--2---2--3---3--5-5-5-5--|
|---1------3------5------3---|---1------3------5-------------|


Am7           Gsus4/B      C
Come now, I'm leaving here tonight
              Gsus4/B      Am7
Come now, let's leave it all behind
             Gsus4/B
Is that the price you pay
C
Running through hell
D
Heaven can wait

Solo
----

[Good Solo on Long Road To Ruin ver1]

Guitar 2:  F - C - F - C - (C-Gsus4/B) - Am - D (x2)


Chorus
------

F
Long road to ruin
C
There in your eyes
F                     C      C-Gsus4/B-
Under the cold streetlights
Am
No tomorrow
D              F
No dead end in sight

F
Long road to ruin
C
There in your eyes
F                     C      C-Gsus4/B-
Under the cold streetlights
Am
No tomorrow
D              F
No dead end in sight

F
Long road to ruin
C
There in your eyes
F                     C      C-Gsus4/B-
Under the cold streetlights
Am
No tomorrow
D              F
No dead end in sight


Chorus End (on F)

|---------------------------------|
|---------------------------------|
|---------------------------------|
|-3-3-3-3-5-5-5-5-7-7-7-7-9-9-9-9-|
|---------------------------------|
|-1-1-1-1-3-3-3-3-5-5-5-5-7-7-7-7-|


|-------------------------------------------------|-----|
|-------------------------------------------------|-----|
|-------------------------------------------------|-----|
|-10-10-10-10-12-12-12-12-14-14-14-14-15-15-15-15-|-10>-|
|-------------------------------------------------|-----|
|-8--8--8--8--10-10-10-10-12-12-12-12-13-13-13-13-|-8>--|

[End on C]
Suggest correction
Creating personal tab
Creating personal tab
You can edit any tab online and save it as your Personal.

You can edit, replace or remove any tab part or add personal notes – all changes will be seen only by you.

Personal tabs can be accessed anytime from any device, even offline.
Learn more »
comments
print report bad tab
6 comments total. Showing first comments.
+1 reply
gibson! 176 Dec 07, 2007 06:27 AM

decent tab

+1 reply
guitarfreakjj 175 Dec 29, 2007 07:08 AM

class tab

+1 reply
Linkerman 1,251 Jan 03, 2008 02:31 AM

There should be more tabbing and less chords... You should've put this under "chords" instead of "guitar tab".

guest
You may want to rate the tab now too:
select rating
Wanna post a correction for this tab? Suggest correction