Oops, an error
Loading. Please wait.

Low tab

version 1
version 1

Whole song

Interactive

35,141 views 45 this week
5 commentsread comments
1 2 3 4 5
x 21
add to favorites
×
Save as Personal and add changes to this tab that will be seen only by you. Learn more ›
×
You can save this tab as Personal to edit and correct it or add notes. All changes will be seen only by you. Learn more »
launch autoscroll
font size
0
reset
how to read this tab
guitar tuner
backing track
0:00
0:00
edit
Autoscroll
slow
fast
+/-
esc
set tempo
stop
Author
Foo Fighters - Low

From there new album "One By One"

Tuning Drop-D (D A D G B E)

[Intro/Verse] X 6

E -----------------------------------------------------|
B -----------------------------------------------------|
G --------------------------15-15-15-15---17-17-17-17--|
D ---------------------------x--x--x--x----x--x--x--x--|
A --------------------------13-13-13-13---15-15-15-15--|
D --5-5-5-5-5-5-5-5-5-5--------------------------------|


E -----------------------------------------------------|
B -----------------------------------------------------|
G --------------------------15-15-15-15---11-11-11-11--|
D ---------------------------x--x--x--x----x--x--x--x--|
A --------------------------13-13-13-13----9--9--9--9--|
D --4-4-4-4-4-4-4-4-4-4--------------------------------|


I have not put the exact amount of strums, listen to
the record to get the exact timing on strumming.


[Bridge] X 2
E --------------------------------------------------------------------------------------------------|
B --------------------------------------------------------------------------------------------------|
G --------------------------------------------------------------------------------------------------|
D --------------------------------------------------------------------------------------------------|
A --------------------------------------------------------------------------------------------------|
D --5-5-5-5-5-5-5-5-5-5---4-4-4-4-4-4-4-4-4---8-8-8-8-8-8-8-8-8-8-8-8---2-2-2-2-2-2-2-2-2-2-2-2-2-2-|

"You'll be my passer by, I'll be your one to pass through......"


Fill (end of the 1st bridge)

E ----------|
B ----------|
G ----------|
D --0-2-----|          *Play after the first bridge only
A ------3---|
E ----------|


[Intro/Verse] X 5

[Bridge] X 2


[Chorus]  X 4

E --------------------------------------------------------|
B --------------------------------------------------------|
G ----------------5--5--5-(5)(5)(5)(5)(5)-----------------|
D --1--1--1-------5--5--5-(5)(5)(5)(5)(5)-----------------|
A --1--1--1-------3--3--3-(3)(3)(3)(3)(3)-----------------|
D --1--1--1-----------------------------------------------|

"Taking it as low as you go.."


[Intro/Verse] X 2

[Bridge] X 2


[Chorus]  X 4

E --------------------------------------------------------|
B --------------------------------------------------------|
G ----------------5--5--5-(5)(5)(5)(5)(5)-----------------|
D --1--1--1-------5--5--5-(5)(5)(5)(5)(5)-----------------|
A --1--1--1-------3--3--3-(3)(3)(3)(3)(3)-----------------|
D --1--1--1-----------------------------------------------|


[Solo] X 2
Lead Guitar X 2

E ---------------------------------------------------|
B ---------------------------------------------------|
G --12-----14-----15-----14-----17-----15-----14-----|
D ---x------x------x------x------x------x------x-----|
A --10-----12-----13-----12-----15-----13-----12-----|
D ---------------------------------------------------|
  X 12    X 4   X 12    X 8    X 4    X 2    X 2

2nd Guitar X 2 (Played in the background of the octaves)

E ----------------------------------------------------------|
B ----------------------------------------------------------|
G ----------------------------------------------------------|
D ----------------------------------------------------------|
A -----------------------------------------------------3----|
D --5-5-5-5---4-4-4-4-4---3-3-3-3-3---2-2-2-2-2----0-2------|


Fill X 3

E ------------------------------------|
B ------------------------------------|
G ------------------------------------|
D ------------------------------------|
A ------------------------------------|
D --5-5-5-5-5-5-5-5-5-----------------|


[Chorus] X 8

[Outro] X 8

E ------------------------------------|
B ------------------------------------|
G -------------------------*5---------|
D -------------------------*5---------|
A ------------------------------------|
D --5-5-5-5-5-5-5-5-5-5---------------|


Key

( ) = Play only one time through
 *  = Natural Harmonic
 x  = Mute

Tabbed by James Graham

If any one has any corrections then e-mail on
guitardude17_uk@yahoo.co.uk

            
            
Suggest correction
Creating personal tab
Creating personal tab
You can edit any tab online and save it as your Personal.

You can edit, replace or remove any tab part or add personal notes – all changes will be seen only by you.

Personal tabs can be accessed anytime from any device, even offline.
Learn more »
comments
print report bad tab
5 comments total. Showing first comments.
0 reply
joshtaberguy 0 Nov 05, 2002 07:00 PM

nice tab man but few mistakes there ok first off the fill after the first bridge is like this
A ------5---
D --0-2-----
and the part after the bridge the first time where you play the verse 2x play it with a wah-wah i believe and the last thing is the solo u have is wrong i see where you are coming from but i found this on some site and its the correct solo
D-5-5-5-5---7-8-10-11-10-8-10---
A-5-5-5-5---7-8-10-11-10-8-10---
D-5-5-5-5---7-8-10-11-10-8-10---

D-4-4-4-4---7-8-10-11-10-8-10---
A-4-4-4-4---7-8-10-11-10-8-10---
D-4-4-4-4---7-8-10-11-10-8-10---

D-3-3-3-3---7-8-10-11-10-8-10---
A-3-3-3-3---7-8-10-11-10-8-10---
D-3-3-3-3---7-8-10-11-10-8-10---

D-2-2-2-2---7-8-10-11-10-8-10---
A-2-2-2-2---7-8-10-11-10-8-10---
D-2-2-2-2---7-8-10-11-10-8-10---

and i guess thats it nice work man
cya

0 reply
BulopMylo 10 Oct 13, 2004 08:00 PM

Not too far off, a lot of it is right. A lot of people try making tabs more complicated than they actually should be...even in great songs, simple can be effective (eg. that Joshtaber dude) so hey keep it up.

0 reply
Kevken 10 May 29, 2007 08:31 AM

It's pretty bad that some notes don't fit, i like the Foo Fighters best, but most songs are not easy to play and much harder to tab...

guest
You may want to rate the tab now too:
select rating
Wanna post a correction for this tab? Suggest correction