Oops, an error
Loading. Please wait.

Low bass

version 2
version 2

Whole song

Interactive

1,362 views 1 this week
no commentswrite comment
1 2 3 4 5
2 more votes to show rating
add to favorites
×
Save as Personal and add changes to this tab that will be seen only by you. Learn more ›
×
You can save this tab as Personal to edit and correct it or add notes. All changes will be seen only by you. Learn more »
launch autoscroll
font size
0
reset
guitar tuner
backing track
0:00
0:00
edit
Autoscroll
slow
fast
+/-
esc
set tempo
stop
Foo Fighters - Low

Album: 2002 - One By One
Instrument: Bass
Tuning: Dropped D

Tabbed By: floodfrenzy


Intro/Verse
G|------------------|------------------|
D|------------------|------------------|
A|------------------|------------------|
D|-55555--555-5-555-|-44444--444-4-444-|


Bridge
G|---------|                                                          G|-------|
D|---------| \Each note is played 16 times                            D|-------|
A|---------| /(Except E(2nd fret)which is played 13) Before playing:  A|-----1-|
D|-5-4-8-2-|                                                          D|-0-2---|


Chorus
G|--------------------|
D|--------------------|
A|--------------------|
D|-1--1--1/10--10--10-|


Solo
G|---------|---------|----------|------------|---------|---------|---------|---------|
D|---------|---------|----------|------------|---------|---------|---------|---3-----|
A|---------|---------|----------|------------|---------|---------|-----1-3-|-4---4-3-|
D|-5-5-5-5-|-5-5-5-5-|-5-5-8-10-|-11-10-8-10-|-4-4-4-4-|-4-4-4-4-|-4-4-----|---------|

G|---------|---------|---------|---------|---------|---------|---------|---------|
D|---------|---------|---------|---------|---------|---------|---------|---------|
A|---------|---------|-----1-3-|-4-3-1-3-|---------|---------|---------|-------4-|
D|-3-3-3-3-|-3-3-3-3-|-3-3-----|---------|-2-2-2-2-|-2-2-2-2-|-2-2-2-2-|-2-0-2---|

At the end very lightly play:

G|------|
D|------|
A|------|
D|-17\0-| x8


            
            
Suggest correction
Creating personal tab
Creating personal tab
You can edit any tab online and save it as your Personal.

You can edit, replace or remove any tab part or add personal notes – all changes will be seen only by you.

Personal tabs can be accessed anytime from any device, even offline.
Learn more »
Give kudos to tab author, rate the tab!
1 2 3 4 5
comments
print report bad tab
guest
Wanna post a correction for this tab? Suggest correction