Oops, an error
Loading. Please wait.
We have an official My Hero tab made by UG professional guitarists. Check out the tab »
×
1,174 views 141 this week
no commentswrite comment
1 2 3 4 5
1 last vote to show rating
add to favorites
×
Save as Personal and add changes to this tab that will be seen only by you. Learn more ›
×
You can save this tab as Personal to edit and correct it or add notes. All changes will be seen only by you. Learn more »
launch autoscroll
font size
0
reset
how to read this tab
guitar tuner
backing track
0:00
0:00
edit
Autoscroll
slow
fast
+/-
esc
set tempo
stop
Author
Difficulty
-------------------------------------------------------------------------------
                             My Hero Acoustic - Foo Fighters
-------------------------------------------------------------------------------
Tabbed by: Luke Ryktarsyk
E-mail: lukeryktarsyk1234@gmail.com
My own version of My Hero Acoustic. So unless there is a error in the writing of the tab, no piece of it is
incorrect per se
(This is also my first tab)

x- quick muted strum
V- up-strum
p- pull-off
h- hammer-on
/- slide
v- vibrato
pm- palm mute


Tuning: EADGBe (Open E)   
 
Opening:
  
 -----------------------------------------------------------

ALTERNATE BEGINNING!:

    F#m    V   V       V     E      V   V      V   V   V   V
e|---2-----2-x-0-0-----0-0---0------0-0-0-4----4-4-4-4-4-4-4-------------------|
B|---2-----2-x-1-1-----1-1p0-0------0-0-0-4----4-4-4-7-5-5-5-------------------|
G|---2-----2-x-2-2-----2-2p0-1------1-1-1-4----4-4-4-4-4-4-4-------------------|
D|---4-----4-x-2-2-----2-2p0-2------2-2-2/6----6-6-6-6-6-6-6-------------------|
A|---4-----4-x-0-0-----0-0---2------2-2-2-4----4-4-4-4-4-4-4-------------------|
E|---2-----2-x---------------0------0-0-2-4----4-4-4-4-4-4-4-------------------|

------------------------------------------------------------                                               

RECOMMENDED BEGINNING!:
                                               E     V   V      V   V   V   V  
e|---0--0--0--0--------0--0--0--0--------------0-----0-0-0-4----4-4-4-4-4-4-4--|
B|---4--5--4--0--------4--5--4--0h2v-------2p0-0-----0-0-0-4----4-4-4-7-5-5-5--|
G|------------4v----------------4--------------1-----1-1-1-4----4-4-4-4-4-4-4--|
D|---------------------------------------------2-----2-2-2/6----6-6-6-6-6-6-6--|
A|---------------------------------------------2-----2-2-2-4----4-4-4-4-4-4-4--|
E|---------------------------------------------0-----0-0-0-4----4-4-4-4-4-4-4--|

 Repeat x2 (below)
   
     E     V   V      V   V   V   V
e|---0-----0-0-0-4----4-4-4-4-4-4-4--------------------------------------------|
B|---0-----0-0-0-4----4-4-4-7-5-5-5--------------------------------------------|
G|---1-----1-1-1-4----4-4-4-4-4-4-4--------------------------------------------|
D|---2-----2-2-2/6----6-6-6-6-6-6-6--------------------------------------------|
A|---2-----2-2-2-4----4-4-4-4-4-4-4--------------------------------------------|
E|---0-----0-0-0-4----4-4-4-4-4-4-4--------------------------------------------|

-ON THE LAST TIME-------------------------------------------
   
     E     V   V      V   V   V   V
e|---0-----0-0-0-4----4-4-4-4-4-7-4--------------------------------------------|
B|---0-----0-0-0-4----4-4-4-7-5-5-5--------------------------------------------|
G|---1-----1-1-1-4----4-4-4-4-4-4-4--------------------------------------------|
D|---2-----2-2-2/6----6-6-6-6-6-6-6--------------------------------------------|
A|---2-----2-2-2-4----4-4-4-4-4-4-4--------------------------------------------|
E|---0-----0-0-0-4----4-4-4-4-4-4-4--------------------------------------------|

    F#m(pm)     A     V   V         V   V      V   V   V   V
e|----------------------------0-----0-0-0-4----4-4-4-4-4-4-4-------------------|
B|----------------------------0-----0-0-0-4----4-4-4-7-5-5-5-------------------|
G|--------------6-------x-x---1-----1-1-1-4----4-4-4-4-4-4-4-------------------|
D|---4-4--------7-----7-x-x---2-----2-2-2/6----6-6-6-6-6-6-6-------------------|
A|---4-4--4-2---7-----7-x-x---2-----2-2-2-4----4-4-4-4-4-4-4-------------------|
E----2-2------4-5-----5-x-x-7/0-----0-0-0-4----4-4-4-4-4-4-4-------------------|

Repeat x7 (below)

     E     V   V      V   V   V   V
e|---0-----0-0-0-4----4-4-4-4-4-4-4--------------------------------------------|
B|---0-----0-0-0-4----4-4-4-7-5-5-5--------------------------------------------|
G|---1-----1-1-1-4----4-4-4-4-4-4-4--------------------------------------------|
D|---2-----2-2-2/6----6-6-6-6-6-6-6--------------------------------------------|
A|---2-----2-2-2-4----4-4-4-4-4-4-4--------------------------------------------|
E|---0-----0-0-0-4----4-4-4-4-4-4-4--------------------------------------------|

Repeat x2 (below)

   Asus2   V  (ALL DOWN STROKES BELOW)
e|---0---0-0-------------------------------------------------------------------|
B|---0---0-0-------------------------------------------------------------------|
G|---2---2-2--8-8-8-9-9-9-11-11-11---------------------------------------------|
D|---2---2-2--8-8-8-9-9-9-11-11-11---------------------------------------------|
A|---0---0-0--6-6-6-7-7-7-9--9--9----------------------------------------------|
E|-----------------------------------------------------------------------------|
   
    E5     V  (ALL DOWN STROKES BELOW)     V  (ALL DOWN STROKES BELOW)
e|-----------------------------------------------------------------------------|
B|-----------------------------------------------------------------------------|
G|------------8-8-8-9-9-9-11-11-11------------11-11-11--13-13-13-8-8-8---------|
D|---2---2-2--8-8-8-9-9-9-11-11-11---2---2-2--11-11-11--13-13-13-8-8-8---------|
A|---2---2-2--6-6-6-7-7-7-9--9--9----2---2-2--9--9--9---11-11-11-6-6-6---------|
E|---0---0-0-------------------------0---0-0-----------------------------------|

Repeat x2 (below)

   Asus2   V  (ALL DOWN STROKES BELOW)
e|---0---0-0-------------------------------------------------------------------|
B|---0---0-0-------------------------------------------------------------------|
G|---2---2-2--8-8-8-9-9-9-11-11-11---------------------------------------------|
D|---2---2-2--8-8-8-9-9-9-11-11-11---------------------------------------------|
A|---0---0-0--6-6-6-7-7-7-9--9--9----------------------------------------------|
E|-----------------------------------------------------------------------------|
   

   
    E5     V  (ALL DOWN STROKES BELOW)     V  (ALL DOWN STROKES BELOW)
e|-----------------------------------------------------------------------------|
B|-----------------------------------------------------------------------------|
G|------------8-8-8-9-9-9-11-11-11------------11-11-11--13-13-13-8-8-8---------|
D|---2---2-2--8-8-8-9-9-9-11-11-11---2---2-2--11-11-11--13-13-13-8-8-8---------|
A|---2---2-2--6-6-6-7-7-7-9--9--9----2---2-2--9--9--9---11-11-11-6-6-6---------|
E|---0---0-0-------------------------0---0-0-----------------------------------|

   F#m(pm)                       (7th fret)     V   V      V   V   V   V
e|--------------------0-0-0-0--------------0----0-0-0-4----4-4-4-4-4-4-4-------|
B|--------------------4-5-4-0--------------0----0-0-0-4----4-4-4-7-5-5-5-------|
G|--------------6-----------4--------------1----1-1-1-4----4-4-4-4-4-4-4-------|
D|---4-4--------7-------------------x-x----2----2-2-2/6----6-6-6-6-6-6-6-------|
A|---4-4--4-2---7-------------------x-x----2----2-2-2-4----4-4-4-4-4-4-4-------|
E|---2-2------4-5-------------------x-x--7/0----0-0-0-4----4-4-4-4-4-4-4-------|

Repeat x7 (below)

     E     V   V      V   V   V   V
e|---0-----0-0-0-4----4-4-4-4-4-4-4--------------------------------------------|
B|---0-----0-0-0-4----4-4-4-7-5-5-5--------------------------------------------|
G|---1-----1-1-1-4----4-4-4-4-4-4-4--------------------------------------------|
D|---2-----2-2-2/6----6-6-6-6-6-6-6--------------------------------------------|
A|---2-----2-2-2-4----4-4-4-4-4-4-4--------------------------------------------|
E|---0-----0-0-0-4----4-4-4-4-4-4-4--------------------------------------------|

Repeat x2 (below)

   Asus2   V  (ALL DOWN STROKES BELOW)
e|---0---0-0-------------------------------------------------------------------|
B|---0---0-0-------------------------------------------------------------------|
G|---2---2-2--8-8-8-9-9-9-11-11-11---------------------------------------------|
D|---2---2-2--8-8-8-9-9-9-11-11-11---------------------------------------------|
A|---0---0-0--6-6-6-7-7-7-9--9--9----------------------------------------------|
E|-----------------------------------------------------------------------------|
   
    E5     V  (ALL DOWN STROKES BELOW)     V  (ALL DOWN STROKES BELOW)
e|-----------------------------------------------------------------------------|
B|-----------------------------------------------------------------------------|
G|------------8-8-8-9-9-9-11-11-11------------11-11-11--13-13-13-8-8-8---------|
D|---2---2-2--8-8-8-9-9-9-11-11-11---2---2-2--11-11-11--13-13-13-8-8-8---------|
A|---2---2-2--6-6-6-7-7-7-9--9--9----2---2-2--9--9--9---11-11-11-6-6-6---------|
E|---0---0-0-------------------------0---0-0-----------------------------------|

Repeat x2 (below)

   Asus2   V  (ALL DOWN STROKES BELOW)
e|---0---0-0-------------------------------------------------------------------|
B|---0---0-0-------------------------------------------------------------------|
G|---2---2-2--8-8-8-9-9-9-11-11-11---------------------------------------------|
D|---2---2-2--8-8-8-9-9-9-11-11-11---------------------------------------------|
A|---0---0-0--6-6-6-7-7-7-9--9--9----------------------------------------------|
E|-----------------------------------------------------------------------------|
   
    E5     V  (ALL DOWN STROKES BELOW)     V  (ALL DOWN STROKES BELOW)
e|-----------------------------------------------------------------------------|
B|-----------------------------------------------------------------------------|
G|------------8-8-8-9-9-9-11-11-11------------11-11-11--13-13-13-6-6-6---------|
D|---2---2-2--8-8-8-9-9-9-11-11-11---2---2-2--11-11-11--13-13-13-8-8-8---------|
A|---2---2-2--6-6-6-7-7-7-9--9--9----2---2-2--9--9--9---11-11-11-8-8-8---------|
E|---0---0-0-------------------------0---0-0-----------------------------------|

Repeat x2 (below)
                                          E  (LET RING)
e|---0--0--0--0--------0--0--0--0---------0------------------------------------|
B|---4--5--4--0--------4--5--4--0h2v------0------------------------------------|
G|------------4v----------------4---------1------------------------------------|
D|----------------------------------------2------------------------------------|
A|----------------------------------------2------------------------------------|
E|----------------------------------------0------------------------------------|
    (CRESCENDO<)
   E(pm)         E    (rapid up/down for last 3 strums)
e|-----------------------------------------------------------------------------|
B|---------------0-0-0-0-0-0-0-0-----------------------------------------------|
G|---1-1-1-1-1-1-1-1-1-1-1-1-1-1-----------------------------------------------|
D|---2-2-2-2-2-2-2-2-2-2-2-2-2-2-----------------------------------------------|
A|---2-2-2-2-2-2-2-2-2-2-2-2-2-2-----------------------------------------------|
E|---0-0-0-0-0-0-0-0-0-0-0-0-0-0-----------------------------------------------|

Repeat x4 (below)

     E     V   V      V   V   V   V
e|---0-----0-0-0-4----4-4-4-4-4-4-4--------------------------------------------|
B|---0-----0-0-0-4----4-4-4-7-5-5-5--------------------------------------------|
G|---1-----1-1-1-4----4-4-4-4-4-4-4--------------------------------------------|
D|---2-----2-2-2/6----6-6-6-6-6-6-6--------------------------------------------|
A|---2-----2-2-2-4----4-4-4-4-4-4-4--------------------------------------------|
E|---0-----0-0-0-4----4-4-4-4-4-4-4--------------------------------------------|

Repeat x2 (below)

   Asus2   V  (ALL DOWN STROKES BELOW)
e|---0---0-0-------------------------------------------------------------------|
B|---0---0-0-------------------------------------------------------------------|
G|---2---2-2--8-8-8-9-9-9-11-11-11---------------------------------------------|
D|---2---2-2--8-8-8-9-9-9-11-11-11---------------------------------------------|
A|---0---0-0--6-6-6-7-7-7-9--9--9----------------------------------------------|
E|-----------------------------------------------------------------------------|

    E5     V  (ALL DOWN STROKES BELOW)     V  (ALL DOWN STROKES BELOW)
e|-----------------------------------------------------------------------------|
B|-----------------------------------------------------------------------------|
G|------------8-8-8-9-9-9-11-11-11------------8-8-8-9-9-9-4-4-4----------------|
D|---2---2-2--8-8-8-9-9-9-11-11-11---2---2-2--8-8-8-9-9-9-4-4-4----------------|
A|---2---2-2--6-6-6-7-7-7-9--9--9----2---2-2--6-6-6-7-7-7-2-2-2----------------|
E|---0---0-0-------------------------0---0-0-----------------------------------|

Repeat x2 (below)

   Asus2   V  (ALL DOWN STROKES BELOW)
e|---0---0-0-------------------------------------------------------------------|
B|---0---0-0-------------------------------------------------------------------|
G|---2---2-2--8-8-8-9-9-9-11-11-11---------------------------------------------|
D|---2---2-2--8-8-8-9-9-9-11-11-11---------------------------------------------|
A|---0---0-0--6-6-6-7-7-7-9--9--9----------------------------------------------|
E|-----------------------------------------------------------------------------|

    E5     V  (ALL DOWN STROKES BELOW)     V  (ALL DOWN STROKES BELOW)
e|-----------------------------------------------------------------------------|
B|-----------------------------------------------------------------------------|
G|------------8-8-8-9-9-9-11-11-11------------11-11-11--13-13-13-8-8-8---------|
D|---2---2-2--8-8-8-9-9-9-11-11-11---2---2-2--11-11-11--13-13-13-8-8-8---------|
A|---2---2-2--6-6-6-7-7-7-9--9--9----2---2-2--9--9--9---11-11-11-6-6-6---------|
E|---0---0-0-------------------------0---0-0-----------------------------------|

   F#m(pm)            E (LET RING)          
e|--------------------0-|
B|--------------------0-|
G|--------------6-----1-|
D|---4-4--------7-----2-|
A|---4-4--4-2---7-----2-|
E|---2-2------4-5-----0-|

            
            
Suggest correction
Creating personal tab
Creating personal tab
You can edit any tab online and save it as your Personal.

You can edit, replace or remove any tab part or add personal notes – all changes will be seen only by you.

Personal tabs can be accessed anytime from any device, even offline.
Learn more »
Give kudos to tab author, rate the tab!
1 2 3 4 5
comments
print report bad tab
guest
You may want to rate the tab now too:
select rating
Wanna post a correction for this tab? Suggest correction