Oops, an error
Loading. Please wait.

My Hero Bass Tab

version 3
version 3
42,604 views 69 this week
no commentswrite comment
1 2 3 4 5
excellent!
x 31
add to favorites
launch autoscroll
font size
0
reset
guitar tuner
Tab Pro tools
  • play this tab
  • loop segment
  • change instrument
  • show fretboard
  • metronome
×
Best way to learn
"My Hero"
Autoscroll
slow
fast
+/-
esc
set tempo
stop
Contributor
Difficulty
novice
MY HERO by FOO FIGHTERS
Tabbed by TaoK


INTRO:
G:|-----------|-----------|-----------|-----------|
D:|-----------|-----------|-----------|-----------|
A:|-----------|-----------|-----------|-----------|
E:|-----------|-----------|-----------|-----------|

G:|-----------|-----------|-----------|-----------| X4
D:|-----------|-----------|-----------|-----------|
A:|-------2/44|44444444---|-------2/44|44444444---|
E:|-000000----|-----------|-000000----|-----------|

G:|-------------|-------------|
D:|-------------|-------------|
A:|-----4-2-----|-------------|
E:|-2-2-----4-5-|-------------|


VERSE 1:
G:|-----------|-----------|-----------|-----------| X4
D:|-----------|-----------|-----------|-----------|
A:|-------2/44|44444444---|-------2/44|44444444---|
E:|-000000----|-----------|-000000----|-----------|


CHORUS:
G:|--------|--------|--------|--------|
D:|--------|--------|--------|--------|
A:|00000000|00000000|00000000|00004444|
E:|--------|--------|--------|--------|

G:|--------|--------|--------|--------|
D:|--------|--------|--------|--------|
A:|--------|--------|--------|----2222|
E:|00000000|00000000|00000000|0000----|

G:|--------|--------|--------|--------|
D:|--------|--------|--------|--------|
A:|00000000|00000000|00000000|00004444|
E:|--------|--------|--------|--------|

G:|--------|--------|--------|--------|
D:|--------|--------|--------|--------|
A:|--------|--------|--------|----2222|
E:|00000000|00000000|00000000|0000----|

G:|-------------|------------|------------|------------|
D:|-------------|------------|------------|------------|
A:|-----4-2-----|------------|------------|------------|
E:|-2-2-----4-5-|------------|------------|------------|


VERSE 2:
G:|-----------|-----------|-----------|-----------| X4
D:|-----------|-----------|-----------|-----------|
A:|-------2/44|44444444---|-------2/44|44444444---|
E:|-000000----|-----------|-000000----|-----------|


CHORUS:
G:|--------|--------|--------|--------|
D:|--------|--------|--------|--------|
A:|00000000|00000000|00000000|00004444|
E:|--------|--------|--------|--------|

G:|--------|--------|--------|--------|
D:|--------|--------|--------|--------|
A:|--------|--------|--------|----2222|
E:|00000000|00000000|00000000|0000----|

G:|--------|--------|--------|--------|
D:|--------|--------|--------|--------|
A:|00000000|00000000|00000000|00004444|
E:|--------|--------|--------|--------|

G:|--------|--------|--------|--------|
D:|--------|--------|--------|--------|
A:|--------|--------|--------|----2222|
E:|00000000|00000000|00000000|0000----|

G:|-------------|------------|
D:|-------------|------------|
A:|-----4-2-----|------------|
E:|-2-2-----4-5-|------------|


INTERLUDE:
G:|---------|---------|---------|---------|---------|---------|---------|---------|
D:|---------|---------|---------|---------|---------|---------|---------|---------|
A:|---------|---------|-------4-|---------|---------|---------|-------4-|---------|
E:|-0-------|---------|-0-------|---------|-0-------|---------|-0-------|---------|

G:|---------|---------|---------|---------|---------|---------|---------|---------|
D:|---------|---------|---------|---------|---------|---------|---------|---------|
A:|---------|---------|---------|---------|---------|---------|---------|---------|
E:|-0-------|---------|---------|---------|---------|---------|---------|---------|


BRIDGE:
G:|-----------|-----------|-----------|-----------| X2
D:|-----------|-----------|-----------|-----------|
A:|-------2/44|44444444---|-------2/44|44444444---|
E:|-000000----|-----------|-000000----|-----------|


CHORUS:
G:|--------|--------|--------|--------|
D:|--------|--------|--------|--------|
A:|00000000|00000000|00000000|00004444|
E:|--------|--------|--------|--------|

G:|--------|--------|--------|--------|
D:|--------|--------|--------|--------|
A:|--------|--------|--------|----2222|
E:|00000000|00000000|00000000|0000----|

G:|--------|--------|--------|--------|
D:|--------|--------|--------|--------|
A:|00000000|00000000|00000000|00004444|
E:|--------|--------|--------|--------|

G:|--------|--------|--------|--------|
D:|--------|--------|--------|--------|
A:|--------|--------|--------|----2222|
E:|00000000|00000000|00000000|0000----|

G:|--------|--------|--------|--------|
D:|--------|--------|--------|--------|
A:|00000000|00000000|00000000|00004444|
E:|--------|--------|--------|--------|

G:|--------|--------|--------|--------|
D:|--------|--------|--------|--------|
A:|--------|--------|--------|----2222|
E:|00000000|00000000|00000000|0000----|

G:|--------|--------|--------|--------|
D:|--------|--------|--------|--------|
A:|00000000|00000000|00000000|00004444|
E:|--------|--------|--------|--------|

G:|--------|--------|--------|--------|
D:|--------|--------|--------|--------|
A:|--------|--------|--------|----2222|
E:|00000000|00000000|00000000|0000----|

G:|-------------|------------|
D:|-------------|------------|
A:|-----4-2-----|------------|
E:|-2-2-----4-5-|------------|
comments
print report bad tab
I want to post or [tab]
guest
You may want to rate the tab now too:
select rating
Please do not post tabs as comments. Select "correction" instead!