Oops, an error
Loading. Please wait.
We have an official My Hero tab made by UG professional guitarists. Check out the tab »
×
46,406 views 57 this week
no commentswrite comment
1 2 3 4 5
x 41
add to favorites
×
Save as Personal and add changes to this tab that will be seen only by you. Learn more ›
×
You can save this tab as Personal to edit and correct it or add notes. All changes will be seen only by you. Learn more »
save as personal
new!
launch autoscroll
font size
0
reset
guitar tuner
backing track
0:00
0:00
Autoscroll
slow
fast
+/-
esc
set tempo
stop
Author
Difficulty
Tuning
novice
E A D G
MY HERO by FOO FIGHTERS
Tabbed by TaoK


[Intro]

G:|-----------|-----------|-----------|-----------|
D:|-----------|-----------|-----------|-----------|
A:|-----------|-----------|-----------|-----------|
E:|-----------|-----------|-----------|-----------|

G:|-----------|-----------|-----------|-----------|
D:|-----------|-----------|-----------|-----------|
A:|-------2/44|44444444---|-------2/44|44444444---|
E:|-000000----|-----------|-000000----|-----------|(x4)

G:|-------------|-------------|
D:|-------------|-------------|
A:|-----4-2-----|-------------|
E:|-2-2-----4-5-|-------------|


[Verse 1]

G:|-----------|-----------|-----------|-----------|
D:|-----------|-----------|-----------|-----------|
A:|-------2/44|44444444---|-------2/44|44444444---|
E:|-000000----|-----------|-000000----|-----------|(x4)


[Chorus]

G:|--------|--------|--------|--------|
D:|--------|--------|--------|--------|
A:|00000000|00000000|00000000|00004444|
E:|--------|--------|--------|--------|

G:|--------|--------|--------|--------|
D:|--------|--------|--------|--------|
A:|--------|--------|--------|----2222|
E:|00000000|00000000|00000000|0000----|

G:|--------|--------|--------|--------|
D:|--------|--------|--------|--------|
A:|00000000|00000000|00000000|00004444|
E:|--------|--------|--------|--------|

G:|--------|--------|--------|--------|
D:|--------|--------|--------|--------|
A:|--------|--------|--------|----2222|
E:|00000000|00000000|00000000|0000----|

G:|-------------|------------|------------|------------|
D:|-------------|------------|------------|------------|
A:|-----4-2-----|------------|------------|------------|
E:|-2-2-----4-5-|------------|------------|------------|


[Verse 2]

G:|-----------|-----------|-----------|-----------|
D:|-----------|-----------|-----------|-----------|
A:|-------2/44|44444444---|-------2/44|44444444---|
E:|-000000----|-----------|-000000----|-----------|(x4)


[Chorus]

G:|--------|--------|--------|--------|
D:|--------|--------|--------|--------|
A:|00000000|00000000|00000000|00004444|
E:|--------|--------|--------|--------|

G:|--------|--------|--------|--------|
D:|--------|--------|--------|--------|
A:|--------|--------|--------|----2222|
E:|00000000|00000000|00000000|0000----|

G:|--------|--------|--------|--------|
D:|--------|--------|--------|--------|
A:|00000000|00000000|00000000|00004444|
E:|--------|--------|--------|--------|

G:|--------|--------|--------|--------|
D:|--------|--------|--------|--------|
A:|--------|--------|--------|----2222|
E:|00000000|00000000|00000000|0000----|

G:|-------------|------------|
D:|-------------|------------|
A:|-----4-2-----|------------|
E:|-2-2-----4-5-|------------|


[Interlude] (Continuously pick during slide)

G:|---------|---------|---------|---------|---------|---------|---------|---------|
D:|---------|---------|---------|---------|---------|---------|---------|---------|
A:|---------|---------|-------4-|---------|---------|---------|-------4-|---------|
E:|-0-------|---------|-0-------|---------|-0-------|---------|-0-------|---------|

G:|---------|---------|---------|---------|---------|---------|---------|---------|
D:|---------|---------|---------|---------|---------|---------|---------|---------|
A:|---------|---------|---------|---------|---------|---------|---------|---------|
E:|-0-------|---------|---------|---------|---------|---------|-0---2-/-|-/-/-/12-|


[Bridge]

G:|-----------|-----------|-----------|-----------|
D:|-----------|-----------|-----------|-----------|
A:|-------2/44|44444444---|-------2/44|44444444---|
E:|-000000----|-----------|-000000----|-----------|(x2)


[Chorus]

G:|--------|--------|--------|--------|
D:|-----7--|-7---77-|-----7--|-7------|
A:|00000-00|0-000--0|00000-00|0-004444|
E:|--------|--------|--------|--------|

G:|--------|--------|--------|--------|
D:|--------|--------|--------|--------|
A:|-----7--|-7---77-|-----7--|-7--2222|
E:|00000-00|0-000--0|00000-00|0-00----|

G:|--------|--------|--------|--------|
D:|-----7--|-7---77-|-----7--|-7------|
A:|00000-00|0-000--0|00000-00|0-004444|
E:|--------|--------|--------|--------|

G:|--------|--------|--------|--------|
D:|--------|--------|--------|--------|
A:|-----7--|-7--777-|-----7--|-7--2222|
E:|00000-00|0-00---0|00000-00|0-00----|

G:|--------|--------|--------|--------|
D:|-----7--|-7---77-|-----7--|-7------|
A:|00000-00|0-000--0|00000-00|0-004444|
E:|--------|--------|--------|--------|

G:|--------|--------|--------|--------|
D:|--------|--------|--------|--------|
A:|-----7--|-7---77-|-----7--|-7--2222|
E:|00000-00|0-000--0|00000-00|0-00----|

G:|--------|--------|--------|--------|
D:|-----7--|-7---77-|-----7--|-7------|
A:|00000-00|0-000--0|00000-00|0-004444|
E:|--------|--------|--------|--------|

G:|--------|--------|--------|--------|
D:|--------|--------|--------|--------|
A:|-----7--|-7---77-|-----7--|-7--2222|
E:|00000-00|0-000--0|00000-00|0-00----|

G:|-------------|------------|
D:|-------------|------------|
A:|-----4-2-----|------------|
E:|-2-2-----4-5-|------------|



************************************

| /  Slide up

************************************
Suggest correction
comments
print report bad tab
guest
You may want to rate the tab now too:
select rating
Wanna post a correction for this tab? Suggest correction