Oops, an error
Loading. Please wait.

My Hero Bass Tab

version 4
version 4
6,911 views 1 this week
no commentswrite comment
1 2 3 4 5
accurate
x 3
add to favorites
launch autoscroll
font size
0
reset
guitar tuner
Tab Pro tools
  • play this tab
  • loop segment
  • change instrument
  • show fretboard
  • metronome
×
Best way to learn
"My Hero"
Autoscroll
slow
fast
+/-
esc
set tempo
stop
Contributor
#----------------------------------PLEASE NOTE---------------------------------#
#This file is the author's own work and represents their interpretation of the #
#song. You may only use this file for private study, scholarship, or research. #
#------------------------------------------------------------------------------#

MY HERO (Bassline)


Transcribed by Gary Ramsey

 
Gtr I (E A D G) - 'Staff'


  Q=77
 4/4
  Gtr I
  W          W          S S S S S S S S S S S S S S S S
|----------|----------|---------------------------------|
|----------|----------|---------------------------------|
|----------|----------|-------------4-4-4-4-4-4-4-4-4-4-|
|----------|----------|-0-0-0-0-0-0---------------------|


  S S S S S S S S S S S S S S S S   S S S S S S S S S S S S S S S S
|---------------------------------|---------------------------------|
|---------------------------------|---------------------------------|
|-------------4-4-4-4-4-4-4-4-4-4-|-------------4-4-4-4-4-4-4-4-4-4-|
|-0-0-0-0-0-0---------------------|-0-0-0-0-0-0---------------------|


  S S S S S S S S S S S S S S S S   S S S S S S S S S S S S S S S S
|---------------------------------|---------------------------------|
|---------------------------------|---------------------------------|
|-------------4-4-4-4-4-4-4-4-4-4-|-------------4-4-4-4-4-4-4-4-4-4-|
|-0-0-0-0-0-0---------------------|-0-0-0-0-0-0---------------------|


  S S S S S S S S S S S S S S S S   S S S S S S S S S S S S S S S S
|---------------------------------|---------------------------------|
|---------------------------------|---------------------------------|
|-------------4-4-4-4-4-4-4-4-4-4-|-------------4-4-4-4-4-4-4-4-4-4-|
|-0-0-0-0-0-0---------------------|-0-0-0-0-0-0---------------------|


  S S S S S S S S S S S S S S S S   E S S S S E +H
|---------------------------------|--------------------|
|---------------------------------|--------------------|
|-------------4-4-4-4-4-4-4-4-4-4-|-----4-2------------|
|-0-0-0-0-0-0---------------------|-2-2-----4-5-(5)----|


  S S S S S S S S S S S S S S S S   S S S S S S S S S S S S S S S S
|---------------------------------|---------------------------------|
|---------------------------------|---------------------------------|
|-------------4-4-4-4-4-4-4-4-4-4-|-------------4-4-4-4-4-4-4-4-4-4-|
|-0-0-0-0-0-0---------------------|-0-0-0-0-0-0---------------------|


  S S S S S S S S S S S S S S S S   S S S S S S S S S S S S S S S S
|---------------------------------|---------------------------------|
|---------------------------------|---------------------------------|
|-------------4-4-4-4-4-4-4-4-4-4-|-------------4-4-4-4-4-4-4-4-4-4-|
|-0-0-0-0-0-0---------------------|-0-0-0-0-0-0---------------------|


  S S S S S S S S S S S S S S S S   S S S S S S S S S S S S S S S S
|---------------------------------|---------------------------------|
|---------------------------------|---------------------------------|
|-------------4-4-4-4-4-4-4-4-4-4-|-------------4-4-4-4-4-4-4-4-4-4-|
|-0-0-0-0-0-0---------------------|-0-0-0-0-0-0---------------------|


  S S S S S S S S S S S S S S S S   S S S S S S S S S S S S S S S S
|---------------------------------|---------------------------------|
|---------------------------------|---------------------------------|
|-------------4-4-4-4-4-4-4-4-4-4-|-------------4-4-4-4-4-4-4-4-4-4-|
|-0-0-0-0-0-0---------------------|-0-0-0-0-0-0---------------------|


  S S S S S S S S S S S S S S S S   S S S S S S S S S S S S S S S S
|---------------------------------|---------------------------------|
|---------------------------------|---------------------------------|
|---------------------------------|-------------------------4-4-4-4-|
|-5-5-5-5-5-5-5-5-5-5-5-5-5-5-5-5-|-5-5-5-5-5-5-5-5-5-5-5-5---------|


  S S S S S S S S S S S S S S S S   S S S S S S S S S S S S S S S S
|---------------------------------|---------------------------------|
|---------------------------------|---------------------------------|
|---------------------------------|-------------------------2-2-2-2-|
|-0-0-0-0-0-0-0-0-0-0-0-0-0-0-0-0-|-0-0-0-0-0-0-0-0-0-0-0-0---------|


  S S S S S S S S S S S S S S S S   S S S S S S S S S S S S S S S S
|---------------------------------|---------------------------------|
|---------------------------------|---------------------------------|
|-0-0-0-0-0-0-0-0-0-0-0-0-0-0-0-0-|-0-0-0-0-0-0-0-0-0-0-0-0-4-4-4-4-|
|---------------------------------|---------------------------------|


  S S S S S S S S S S S S S S S S   S S S S S S S S S S S S S S S S
|---------------------------------|---------------------------------|
|---------------------------------|---------------------------------|
|---------------------------------|-------------------------2-2-2-2-|
|-0-0-0-0-0-0-0-0-0-0-0-0-0-0-0-0-|-0-0-0-0-0-0-0-0-0-0-0-0---------|


  E S S S S E +H       W          S S S S S S S S S S S S S S S S
|--------------------|----------|----------------------------------|
|--------------------|----------|----------------------------------|
|-----4-2------------|----------|-------------4-4-4-4-4-4-4-4-4-4--|
|-2-2-----4-5-(5)----|----------|-0-0-0-0-0-0----------------------|


  S S S S S S S S S S S S S S S S   S S S S S S S S S S S S S S S S
|---------------------------------|---------------------------------|
|---------------------------------|---------------------------------|
|-------------4-4-4-4-4-4-4-4-4-4-|-------------4-4-4-4-4-4-4-4-4-4-|
|-0-0-0-0-0-0---------------------|-0-0-0-0-0-0---------------------|


  S S S S S S S S S S S S S S S S   S S S S S S S S S S S S S S S S
|---------------------------------|---------------------------------|
|---------------------------------|---------------------------------|
|-------------4-4-4-4-4-4-4-4-4-4-|-------------4-4-4-4-4-4-4-4-4-4-|
|-0-0-0-0-0-0---------------------|-0-0-0-0-0-0---------------------|


  S S S S S S S S S S S S S S S S   S S S S S S S S S S S S S S S S
|---------------------------------|---------------------------------|
|---------------------------------|---------------------------------|
|-------------4-4-4-4-4-4-4-4-4-4-|-------------4-4-4-4-4-4-4-4-4-4-|
|-0-0-0-0-0-0---------------------|-0-0-0-0-0-0---------------------|


  S S S S S S S S S S S S S S S S   S S S S S S S S S S S S S S S S
|---------------------------------|---------------------------------|
|---------------------------------|---------------------------------|
|-------------4-4-4-4-4-4-4-4-4-4-|---------------------------------|
|-0-0-0-0-0-0---------------------|-5-5-5-5-5-5-5-5-5-5-5-5-5-5-5-5-|


  S S S S S S S S S S S S S S S S   S S S S S S S S S S S S S S S S
|---------------------------------|---------------------------------|
|---------------------------------|---------------------------------|
|-------------------------4-4-4-4-|---------------------------------|
|-5-5-5-5-5-5-5-5-5-5-5-5---------|-0-0-0-0-0-0-0-0-0-0-0-0-0-0-0-0-|


  S S S S S S S S S S S S S S S S   S S S S S S S S S S S S S S S S
|---------------------------------|---------------------------------|
|---------------------------------|---------------------------------|
|-------------------------2-2-2-2-|-0-0-0-0-0-0-0-0-0-0-0-0-0-0-0-0-|
|-0-0-0-0-0-0-0-0-0-0-0-0---------|---------------------------------|


  S S S S S S S S S S S S S S S S   S S S S S S S S S S S S S S S S
|---------------------------------|---------------------------------|
|---------------------------------|---------------------------------|
|-0-0-0-0-0-0-0-0-0-0-0-0-4-4-4-4-|---------------------------------|
|---------------------------------|-0-0-0-0-0-0-0-0-0-0-0-0-0-0-0-0-|


  S S S S S S S S S S S S S S S S   E S S S S E +H       H    +H
|---------------------------------|--------------------|-------------|
|---------------------------------|--------------------|-------------|
|-------------------------2-2-2-2-|-----4-2------------|-------------|
|-0-0-0-0-0-0-0-0-0-0-0-0---------|-2-2-----4-5-(5)----|-0----(0)----|


  Q.   E +H       H    +H       Q.   E +H       W
|---------------|-------------|---------------|------|
|---------------|-------------|---------------|------|
|------4-(4)----|-------------|------4-(4)----|------|
|-0-------------|-0----(0)----|-0-------------|-0----|


  +H     +H       S S S S S S S S S S S S S S S S
|---------------|---------------------------------|
|---------------|---------------------------------|
|---------------|---------------------------------|
|-(0)----(0)----|-0-0-0-0-0-0-0-0-0-0-0-0-0-0-0-0-|


  S S S S S S S S S S S S S S S S   S S S S S S S S S S S S S S S S
|---------------------------------|---------------------------------|
|---------------------------------|---------------------------------|
|---------------------------------|-------------4-4-4-4-4-4-4-4-4-4-|
|-0-0-0-0-0-0-0-0-0-0-0-0-0-0-0-0-|-0-0-0-0-0-0---------------------|


  S S S S S S S S S S S S S S S S   S S S S S S S S S S S S S S S S
|---------------------------------|---------------------------------|
|---------------------------------|---------------------------------|
|-------------4-4-4-4-4-4-4-4-4-4-|-------------4-4-4-4-4-4-4-4-4-4-|
|-0-0-0-0-0-0---------------------|-0-0-0-0-0-0---------------------|


  S S S S S S S S S S S S S S S S   S S S S S S S S S S S S S S S S
|---------------------------------|---------------------------------|
|---------------------------------|---------------------------------|
|-------------4-4-4-4-4-4-4-4-4-4-|---------------------------------|
|-0-0-0-0-0-0---------------------|-5-5-5-5-5-5-5-5-5-5-5-5-5-5-5-5-|


  S S S S S S S S S S S S S S S S   S S S S S S S S S S S S S S S S
|---------------------------------|---------------------------------|
|---------------------------------|---------------------------------|
|-------------------------4-4-4-4-|---------------------------------|
|-5-5-5-5-5-5-5-5-5-5-5-5---------|-0-0-0-0-0-0-0-0-0-0-0-0-0-0-0-0-|


  S S S S S S S S S S S S S S S S   S S S S S S S S S S S S S S S S
|---------------------------------|---------------------------------|
|---------------------------------|---------------------------------|
|-------------------------2-2-2-2-|-0-0-0-0-0-0-0-0-0-0-0-0-0-0-0-0-|
|-0-0-0-0-0-0-0-0-0-0-0-0---------|---------------------------------|


  S S S S S S S S S S S S S S S S   S S S S S S S S S S S S S S S S
|---------------------------------|---------------------------------|
|---------------------------------|---------------------------------|
|-0-0-0-0-0-0-0-0-0-0-0-0-4-4-4-4-|---------------------------------|
|---------------------------------|-0-0-0-0-0-0-0-0-0-0-0-0-0-0-0-0-|


  S S S S S S S S S S S S S S S S   S S S S S S S S S S S S S S S S
|---------------------------------|---------------------------------|
|---------------------------------|---------------------------------|
|-------------------------2-2-2-2-|-0-0-0-0-0-0-0-0-0-0-0-0-0-0-0-0-|
|-0-0-0-0-0-0-0-0-0-0-0-0---------|---------------------------------|


  S S S S S S S S S S S S S S S S   S S S S S S S S S S S S S S S S
|---------------------------------|---------------------------------|
|---------------------------------|---------------------------------|
|-0-0-0-0-0-0-0-0-0-0-0-0-4-4-4-4-|---------------------------------|
|---------------------------------|-0-0-0-0-0-0-0-0-0-0-0-0-0-0-0-0-|


  S S S S S S S S S S S S S S S S   S S S S S S S S S S S S S S S S
|---------------------------------|---------------------------------|
|---------------------------------|---------------------------------|
|-------------------------2-2-2-2-|-0-0-0-0-0-0-0-0-0-0-0-0-0-0-0-0-|
|-0-0-0-0-0-0-0-0-0-0-0-0---------|---------------------------------|


  S S S S S S S S S S S S S S S S   S S S S S S S S S S S S S S S S
|---------------------------------|---------------------------------|
|---------------------------------|---------------------------------|
|-0-0-0-0-0-0-0-0-0-0-0-0-4-4-4-4-|---------------------------------|
|---------------------------------|-0-0-0-0-0-0-0-0-0-0-0-0-0-0-0-0-|


  S S S S S S S S S S S S S S S S   E S S S S E +H       +H     +H
|---------------------------------|--------------------|---------------*|
|---------------------------------|--------------------|---------------*|
|-------------------------2-2-2-2-|-----4-2------------|---------------*|
|-0-0-0-0-0-0-0-0-0-0-0-0---------|-2-2-----4-5-(5)----|-(5)----(5)----*|




--------------------------------------------------------------------------------


Duration Legend
---------------
W - whole; H - half; Q - quarter; E - 8th; S - 16th; T - 32nd; X - 64th; a - acciaccatura
+ - note tied to previous; . - note dotted; .. - note double dotted
Uncapitalized letters represent notes that are staccato (1/2 duration)
Irregular groupings are notated above the duration line
Duration letters will always appear directly above the note/fret number it represents the
duration for.  Duration letters with no fret number below them represent rests.  Multi-
bar rests are notated in the form Wxn, where n is the number of bars to rest for.  Low
melody durations appear below the staff

Tablature Legend
----------------
 h   - hammer-on
 p   - pull-off
 b   - bend
 pb  - pre-bend
 r   - bend release (if no number after the r, then release immediately)
 /\  - slide into or out of (from/to "nowhere")
 s   - legato slide
 S   - shift slide
 - natural harmonic
[n]  - artificial harmonic
n(n) - tapped harmonic
 ~   - vibrato
 tr  - trill
 T   - tap
 TP  - trem. picking
 PM  - palm muting
\n/  - tremolo bar dip; n = amount to dip
 \n  - tremolo bar down
 n/  - tremolo bar up
/n\  - tremolo bar inverted dip
 =   - hold bend; also acts as connecting device for hammers/pulls
 <> - volume swell (louder/softer)
 x   - on rhythm slash represents muted slash
 o   - on rhythm slash represents single note slash

Misc Legend
-----------
 |  - bar
||  - double bar
||o - repeat start
o|| - repeat end
*|  - double bar (ending)
 :  - bar (freetime)
 $  - Segno
 &  - Coda
Tempo markers -  = BPM(8/16=s8/s16), where s8 = swing 8ths, s16 = swing 16ths



--------------------------------------------------------------------------------

** Generated using Power Tab Editor by Brad Larsen: The Official Power Tab Web Site
comments
We did not receive enough feedback on this tab! Please rate:
print report bad tab
1 2 3 4 5
I want to post or [tab]
guest
You may want to rate the tab now too:
select rating
Please do not post tabs as comments. Select "correction" instead!