Oops, an error
Loading. Please wait.

My Poor Brain Tab

version 3
version 3

Whole song

Interactive

394 views 3 this week
no commentswrite comment
1 2 3 4 5
please rate
add to favorites
launch autoscroll
font size
0
reset
how to read this tab
guitar tuner
Autoscroll
slow
fast
+/-
esc
set tempo
stop
Help us to improve Ultimate-Guitar.com Take our survey!
×
Author
Here is my first tab. I reckon some of it is wrong but i'm quite sure the chorus
is right. Anyway this song is awesome so have fun playing it.



{Verse}
E|-444444--66666--7777777--------------------------|
B|-666666--77777--7777777--------------------------|REPEAT 6X
G|-------------------------------------------------|
D|-------------------------------------------------|
A|-------------------------------------------------|
E|-------------------------------------------------|

{This is a blackout...}
E|-------------------------------------------------|
B|-------------------------------------------------|
G|-------------------------------------------------|
D|--6666-44--4444--987-----------------------------|
A|--6666-44--4444--987-----------------------------|
E|--4444-22--2222--765-----------------------------|


{Don't let it go to waste...}{I wanna detonate!...}
E|-------------------------------------------------|
B|-------------------------------------------------|
G|-------------------------------------------------|
D|--6666-44--4444--542-----------------------------|
A|--6666-44--4444--542-----------------------------|
E|--4444-22--2222--320-----------------------------|

{some times I feel like I'm getting stuck...}
{between the handshake, and the f**k...}
E|-------------------------------------------------|
B|-------------------------------------------------|
G|-------------------------------------------------|
D|--66666666-99999999------------------------------|
A|--66666666-99999999------------------------------|
E|--44444444-77777777------------------------------|

{the part that goes in between the previous bit}
E|-------------------------------------------------|
B|-------------------------------------------------|
G|-------------------------------------------------|
D|-----6---6--------6--6---------------------------| REPEAT 6X for outro
A|-----------------------6-------------------------|
E|--66--66---6---66--66----6-----------------------|

{Bridge}
{you got me on guard...}
E|---4--466--662--2-4------------------------------|
B|---6--677--774--4-6------------------------------|
G|-------------------------------------------------|
D|-------------------------------------------------|
A|-------------------------------------------------|
E|-------------------------------------------------|


Tabbed By: jrobong
Suggest correction
Give kudos to tab author, rate the tab!
1 2 3 4 5
comments
print report bad tab
guest
You may want to rate the tab now too:
select rating
Please do not post tabs as comments. Select "correction" instead!