Oops, an error
Loading. Please wait.

New Way Home Bass Tab

version 2
version 2

Whole song

Interactive

1,243 views 3 this week
1 commentread comment
1 2 3 4 5
please rate
add to favorites
launch autoscroll
font size
0
reset
guitar tuner
Autoscroll
slow
fast
+/-
esc
set tempo
stop
Help us to improve Ultimate-Guitar.com Take our survey!
×
Author
Foo Fighters – New Way Home (Bass)
(Normal Tuning)


Riff A
G|--------------------------------------------------------------|
D|--------------------------------------------------------------|
A|--00000000-00000000-------------------------22-44-55555555----|	2*
E|------------------------------22-55---------------------------|
 
Riff B
G|----------------------------------------------------------|
D|----------------------------------------------------------|
A|--00000000-00000000---------------------------------------|	1*
E|------------------------------22222222-22222222-----------|

Riff C
G|-----------------------------------------7-5—5------------------|
D|---------------------------------------------------77-55--------|
A|------------------------------555555---------------------55-----|	1*
E|--33333333-33333333---------------------------------------------|

Riff B (1*)
Riff C (1*)
Riff A (2*)
Riff B (1*)
Riff C (1*)
Riff B (1*)
Riff C (1*)

Riff D
G|-------------------------------------------------------------------|
D|-------------------------------------------------------------------|
A|--00000000------------------55555555-----------------0-------------|  1*
E|-----------------11111111------------------33333333------1111-1/3--|
 
Riff E
G|--------------------------------------------------------------|
D|--------------------------------------------------------------|
A|--00000000------------------55555555----------------0---------|	1*
E|-----------------11111111-----------------33333333-----11-----|


Riff F
G|---------------------------|
D|---------------------------|
A|--000-------------0--------|		2*
E|---------4-0-4-0----40-----|

Riff G
G|-----------------------------------------|
D|-----------------------------------------|
A|--000------------------------------55----|		1*
E|--------40-22-22222222-2222--------------|

Riff F (2*)

Riff H
G|-------------------------------|
D|-------------------------------|
A|-------------------------------|	1*
E|--22222222-33333333-3----------|

Riff D (26*)
Suggest correction
Give kudos to tab author, rate the tab!
1 2 3 4 5
comments
print report bad tab
1 comment total.
-1 reply
Liam 1,995 wrote on January 20 2007, 11:06 am

wrong

guest
You may want to rate the tab now too:
select rating
Wanna post a correction for this tab? Suggest correction