Oops, an error
Loading. Please wait.

Next Year Tab

version 1
version 1

Whole song

Interactive

37,944 views 9 this week
3 commentsread comments
1 2 3 4 5
x 14
add to favorites
launch autoscroll
font size
0
reset
how to read this tab
guitar tuner
Autoscroll
slow
fast
+/-
esc
set tempo
stop
Help us to improve Ultimate-Guitar.com Take our survey!
×
Author
Intro:
e||------10-10-10--10-10----10-10-----3-3-3---3-3-3---3-||
b||-8----8--8--8---7--7-----7--7--x-1-1-1-1---1-1-1---1-||
g||-0-0--0--0--0---0--0--0--0--0--x-0-0-0-0---0-0-0---0-||
d||-9-9--9--9--9---9--9--9--9--9--x-2-2-2-0h2p0-0-0h2p0-||
a||---10-----------------10---------3-------------------||
e||-----------------------------------------------------||


Verse
   (Gtr. 1)
e||------10-10-10--10-10----10-10---3-3-3------------||
b||-8----8--8--8---7--7-----7--7--x-1-1-1------------||
g||-0-0--0--0--0---0--0--0--0--0--x-0-0-0-0---0---0--|| (2x)
d||-9-9--9--9--9---9--9--9--9--9--x-2-2-2-0h2-0-0-0--||
a||---10-----------------10---------3-3-3-------3----||
e||--------------------------------------------------||
 ||
 ||(Gtr. 2)
e||--------------------------------------------------||
b||-8--8--8--8--8--7-7-7-7-7-7-1-1-1-1-1-1-1-1-1-1-1-||
g||-0--0--0--0--0--0-0-0-0-0-0-0-0-0-0-0-0-0-0-0-0-0-|| (2x)
d||----------------------------2-2-2-2-2-2-2-2-2-2-2-||
a||-10-10-10-10-10-9-9-9-9-9-9-3-3-3-3-3-3-3-3-3-3-3-||
e||--------------------------------------------------||

   (Gtr. 1)
e||------10-10-10--10-10----10-10-----3-3-3-0-----0--||
b||-8----8--8--8---7--7-----7--7--x-1-1-1-1-2-----2--||
g||-0-0--0--0--0---0--0--0--0--0--x-0-0-0-0-0-----0--||
d||-9-9--9--9--9---9--9--9--9--9--x-2-2-2-2-2---2-2--||
a||---10-----------------10---------3-------0---0-0--||
e||--------------------------------------------------||
 ||
 ||(Gtr. 2)
e||-------------------------------------0-----0------||
b||-8--8--8--8--8--7-7-7-7-7-7-1-1-1-1--2-----2------||
g||-0--0--0--0--0--0-0-0-0-0-0-0-0-0-0--0-----0------||
d||----------------------------2-2-2-2--2---2-2------||
a||-10-10-10-10-10-9-9-9-9-9-9-3-3-3-3--0---0-0------||
e||--------------------------------------------------||

   (Gtr. 1)
e||-3-3-3-3-3-3-5-5-5-5-5-5-5-5-10-10-10-10-10-10-10-10-||
b||-1-1-1-1-1-1-3-3-3-3-3-3-3-3--8--8--8--8--8--8--8--8-||
g||-0-0-0-0-0-0-0-0-0-0-0-0-0-0--0--0--0--0--0--0--0--0-||
d||-2-2-2-2-2-2-4-4-4-4-4-4-4-4--9--9--9--9--9--9--9--9-||
a||-3-3-3-3-3-3-5-5-5-5-5-5-5-5-10-10-10-10-10-10-10-10-||
e||-----------------------------------------------------||
 ||
 ||(Gtr. 2)
e||-3-3-3-3-3-3-3-3-------------3-3-3-3-3-3-3-3-3-------||
b||-1-1-1-1-1-1-1-1---1---1---1-3-3-3-3-3-3-3-3-3-------||
g||-0-0-0-0-0-0-0-0-0-0-0-0-0-0-0-0-0-0-0-0-0-0-0-------||
d||-2-2-2-2-2-2-2-2-2-2-2-2-2-2-0-0-0-0-0-0-0-0-0-------||
a||-3-3-3-3-3-3-3-3-3-3-3-3-3-3-2-2-2-2-2-2-2-2-2-------||
e||-----------------------------3-3-3-3-3-3-3-3-3-------||


Chorus
   (Gtr. 1)
e||-3-3-3-3-3-3-3-3-3-10-10-10-10-10-10-10-10-10-||
b||-1-1-1-1-1-1-1-1-1--8--8--8--8--8--8--8--8--8-||
g||-0-0-0-0-0-0-0-0-0--0--0--0--0--0--0--0--0--0-|| (2x)
d||-2-2-2-2-2-2-2-2-2--9--9--9--9--9--9--9--9--9-||
a||-3-3-3-3-3-3-3-3-3-10-10-10-10-10-10-10-10-10-||
e||----------------------------------------------||
 ||
 ||(Gtr. 2)
e||-3-3-3-3-3-3-3-3-3-3-3-3-3-3-3-3-3-3-3--------||
b||-3-3-3-3-3-3-3-3-3-3-3-3-3-3-3-3-3-3-3--------||
g||-0-0-0-0-0-0-0-0-0-0-0-0-0-0-0-0-0-0-0--------|| (2x)
d||-2-2-2-2-2-2-2-2-2-0-0-0-0-0-0-0-0-0-0--------||
a||-3-3-3-3-3-3-3-3-3-2-2-2-2-2-2-2-2-2-2--------||
e||-------------------3-3-3-3-3-3-3-3-3-3--------||

   (Both Guitars)
e||-3-3-3-3-3-3-3-3-0-0-0-0-0-0-0-0--3-||
b||-1-1-1-1-1-1-1-1-3-3-3-3-3-3-3-3--2-||
g||-0-0-0-0-0-0-0-0-0-0-0-0-0-0-0-0--3-||
d||-2-2-2-2-2-2-2-2-5-5-5-5-5-5-5-5--0-||
a||-3-3-3-3-3-3-3-3-4-4-4-4-4-4-4-4----||
e||------------------------------------||


Bridge
   (Gtr. 1 - W/Dist)
e||----------------------||
b||----------------------||
g||----------------------||
d||-0-0-0------0-0-0-----||
a||-5-4-2-0-0--5-4-2-0-0-||
e||-------3-5--------3-5-||
 ||
 ||(Gtr. 2 - Clean)
e||-0-0-0------0-0-0-----||
b||-0-0-0------0-0-0-----||
g||-2-2-2------2-2-2-----||
d||-2-2-2------2-2-2-----||
a||-0-0-0------0-0-0-----||
e||----------------------||

   (Both Guitars)
e||-3-3-3-3-3-3-3-3-3-3-3-3-3-||
b||-1-1-1-1-1-1-1-1-1-1-1-1-1-||
g||-0-0-0-0-0-0-0-0-0-0-0-0-0-||
d||-2-2-2-2-2-2-2-2-2-2-2-2-2-||
a||-3-3-3-3-3-3-3-3-3-3-3-3-3-||
e||---------------------------||

   (Gtr. 1 - W/Dist)
e||----------------------||
b||----------------------||
g||----------------------||
d||-0-0-0------0-0-0-----||
a||-5-4-2-0-0--5-4-2-0-0-||
e||-------3-5--------3-5-||
 ||
 ||(Gtr. 2 - Clean)
e||-0-0-0------0-0-0-----||
b||-0-0-0------0-0-0-----||
g||-2-2-2------2-2-2-----||
d||-2-2-2------2-2-2-----||
a||-0-0-0------0-0-0-----||
e||----------------------||

   (Gtr. 1)
e||-3-3-3-3-3-3-3-5-5-5-5-5-5-||
b||-1-1-1-1-1-1-1-3-3-3-3-3-3-||
g||-0-0-0-0-0-0-0-0-0-0-0-0-0-||
d||-2-2-2-2-2-2-2-4-4-4-4-4-4-||
a||-3-3-3-3-3-3-3-5-5-5-5-5-5-||
e||---------------------------||
 ||
 ||(Gtr. 2)
e||-3-3-3-3-3-3-3-2-2-2-2-2-2-||
b||-1-1-1-1-1-1-1-3-3-3-3-3-3-||
g||-0-0-0-0-0-0-0-2-2-2-2-2-2-||
d||-2-2-2-2-2-2-2-0-0-0-0-0-0-||
a||-3-3-3-3-3-3-3-------------||
e||---------------------------||


Outro
   (Gtr. 1)
e||-3-3-3-3-3-3-5-5-5-5-5-5-5-5-10-10-10-10-10-10-10-10-0---0-0-||
b||-1-1-1-1-1-1-3-3-3-3-3-3-3-3--8--8--8--8--8--8--8--8-2---2-2-||
g||-0-0-0-0-0-0-0-0-0-0-0-0-0-0--0--0--0--0--0--0--0--0-0---0-0-|| (2x)
d||-2-2-2-2-2-2-4-4-4-4-4-4-4-4--9--9--9--9--9--9--9--9-2---2-2-||
a||-3-3-3-3-3-3-5-5-5-5-5-5-5-5-10-10-10-10-10-10-10-10-0---0-0-||
e||-------------------------------------------------------------||
 ||
 ||(Gtr. 2)
e||-3-3-3-3-3-3-3-3-------------3-3-3-3-3-3-3-3-3-0---0-0-------||
b||-1-1-1-1-1-1-1-1---1---1---1-3-3-3-3-3-3-3-3-3-2---2-2-------||
g||-0-0-0-0-0-0-0-0-0-0-0-0-0-0-0-0-0-0-0-0-0-0-0-0---0-0-------|| (2x)
d||-2-2-2-2-2-2-2-2-2-2-2-2-2-2-0-0-0-0-0-0-0-0-0-2---2-2-------||
a||-3-3-3-3-3-3-3-3-3-3-3-3-3-3-2-2-2-2-2-2-2-2-2-0---0-0-------||
e||-----------------------------3-3-3-3-3-3-3-3-3---------------||

   (Gtr. 1)
e||-3-3-3-3-3-3-5-5-5-5-5-5-5-5-10-||
b||-1-1-1-1-1-1-3-3-3-3-3-3-3-3--8-||
g||-0-0-0-0-0-0-0-0-0-0-0-0-0-0--0-||
d||-2-2-2-2-2-2-4-4-4-4-4-4-4-4--9-||
a||-3-3-3-3-3-3-5-5-5-5-5-5-5-5-10-||
e||--------------------------------||
 ||
 ||(Gtr. 2)
e||-3-3-3-3-3-3-3-3-------------3--||
b||-1-1-1-1-1-1-1-1---1---1---1-3--||
g||-0-0-0-0-0-0-0-0-0-0-0-0-0-0-0--||
d||-2-2-2-2-2-2-2-2-2-2-2-2-2-2-0--||
a||-3-3-3-3-3-3-3-3-3-3-3-3-3-3-2--||
e||-----------------------------3--||

Fade out
e||-10-10-10-10-10-10-10-10-10-10-10-10-10-10-10-10-10-||
b||--8--8--8--8--8--7--7--7--7--8--8--8--8--8--8--8--8-||
g||--0--0--0--0--0--0--0--0--0--0--0--0--0--0--0--0--0-||
d||--9--9--9--9--9--9--9--9--9--9--9--9--9--9--9--9--9-||
a||-10-10-10-10-10-10-10-10-10-10-10-10-10-10-10-10-10-||
e||----------------------------------------------------||
Suggest correction
comments
print report bad tab
3 comments total.
0 reply
Kurt_Cobain 0 May 07, 2002 12:00 AM

That's funny this was posted on FooFighters.com, strange.

0 reply
GoatPuNisMenT 70 May 09, 2002 12:00 AM

thats because it's where i got it from. When i posted it, I wrote that it wasn't mine..and i was just posting it because the other ones here were incorrect. For some reason or another, they declined to put that in. Take it easy

0 reply
van-halen rock 62 Nov 29, 2006 03:42 PM

why has this tab only got 3 stars???

guest
You may want to rate the tab now too:
select rating
Wanna post a correction for this tab? Suggest correction