Oops, an error
Loading. Please wait.

No Way Back Tab

version 3
version 3

Whole song

4,618 views 3 this week
1 commentread comment
1 2 3 4 5
accurate
x 3
add to favorites
launch autoscroll
font size
0
reset
how to read this tab
guitar tuner
Autoscroll
slow
fast
+/-
esc
set tempo
stop
Help us to improve Ultimate-Guitar.com Take our survey!
×
Author
Difficulty
~Tupps~ 39
intermediate
INTRO
1st Guitar
e|---------------------------------------------------------|
B|---------------------------------------------------------|
G|---------------------------------------------------------|
D|---------------------------------------------------------| x3
A|--------------2----------2--------------2----------2-----|
E|---2--4-4-2-4---4--4-2-4---4-2--4-4-2-4---4--4-2-4---4-2-|

2nd Guitar (In line with above)
e|---------------------------------------------------------|
B|---------------------------------------------------------|
G|---------------------------------------------------------|
D|---6-6--------------------------4-6----------------------| x1
A|---6-6--------------------------4-6----------------------|
E|---4-4--------------------------2-4----------------------|

1st VERSE
1st Guitar
Lately... to ... I'm dyin for truth
e|---------------------------------------------------------|
B|---------------------------------------------------------|
G|---8--9--8--6--8--9--11--13------------------------------|
D|---x--x--x--x--x--x--x---x-------------------------------|
A|---6--7--6--4--6--7--9---11------------------------------|
E|---------------------------------------------------------|
Then 2nd Guitar
e|---------------------------------------------------------|
B|---------------------------------------------------------|
G|---------------------------------------------------------|
D|---------------------------------------------------------|
A|--------------2----------2--------------2----------2-----|
E|------4-4-2-4---4--4-2-4---4-2--4-4-2-4---4--4-2-4---4-2-|

2nd VERSE
1st Guitar
Make me... to ... I'm fightin for you
e|---------------------------------------------------------|
B|---------------------------------------------------------|
G|---8--9--8--6--8--9--11--13------------------------------|
D|---x--x--x--x--x--x--x---x-------------------------------|
A|---6--7--6--4--6--7--9---11------------------------------|
E|---------------------------------------------------------|
Then 2nd Guitar while the 2nd 'I'm fightin for you' is sung
e|---------------------------------------------------------|
B|---------------------------------------------------------|
G|---------------------------------------------------------|
D|---------------------------------------------------------|
A|--------------2----------2--------------2----------2-----|
E|------4-4-2-4---4--4-2-4---4-2--4-4-2-4---4--4-2-4---4-2-|

CHORUS
Both Guitars                          'But I dont care'
e|---3------0------0------0------|-----------0-------------|
B|---2------3------0------0------|-----------3-------------|
G|---3------3------1------4------|-----------3-------------|
D|---0------3------2------4------|-x2--------3-------------|
A|---0------0------2------2------|-----------0-------------|
E|---0------0------0------0------|-----------0-------------|

2nd Guitar
  'No way back from here'
e|-------------------------|
B|-------------------------|
G|-----------7-------------|
D|--5--4--2--7-------------|
A|--5--4--2--5-------------|
E|--3--2--0--0-------------|

1st Guitar
e|---------------------------------------------------------|
B|---------------------------------------------------------|
G|---------------------------------------------------------|
D|---------------------------------------------------------|
A|--------------2----------2--------------2----------2-----|
E|------4-4-2-4---4--4-2-4---4-2--4-4-2-4---4--4-2-4---4-2-|

3rd VERSE
1st Guitar
Wake me... to ...I was talkin to you 
e|---------------------------------------------------------|
B|---------------------------------------------------------|
G|---8--9--8--6--8--9--11--13------------------------------|
D|---x--x--x--x--x--x--x---x-------------------------------|
A|---6--7--6--4--6--7--9---11------------------------------|
E|---------------------------------------------------------|
Then 2nd Guitar
e|---------------------------------------------------------|
B|---------------------------------------------------------|
G|---------------------------------------------------------|
D|---------------------------------------------------------|
A|--------------2----------2--------------2----------2-----|
E|------4-4-2-4---4--4-2-4---4-2--4-4-2-4---4--4-2-4---4-2-|

4th VERSE
1st Guitar
Memory... to ...I'm breakin to you
e|---------------------------------------------------------|
B|---------------------------------------------------------|
G|---8--9--8--6--8--9--11--13------------------------------|
D|---x--x--x--x--x--x--x---x-------------------------------|
A|---6--7--6--4--6--7--9---11------------------------------|
E|---------------------------------------------------------|
Then 2nd Guitar while the 2nd 'I'm breaking to you' is sung
e|---------------------------------------------------------|
B|---------------------------------------------------------|
G|---------------------------------------------------------|
D|---------------------------------------------------------|
A|--------------2----------2--------------2----------2-----|
E|------4-4-2-4---4--4-2-4---4-2--4-4-2-4---4--4-2-4---4-2-|

CHORUS
Both Guitars                          'But I dont care'
e|---3------0------0------0------|-----------0-------------|
B|---2------3------0------0------|-----------3-------------|
G|---3------3------1------4------|-----------3-------------|
D|---0------3------2------4------|-x2--------3-------------|
A|---0------0------2------2------|-----------0-------------|
E|---0------0------0------0------|-----------0-------------|

Then 2nd Guitar
  'No way back from here'
e|-----------------------------------------------------------------|
B|-----------------------------------------------------------------|
G|-----------7-----------------------------------------------------|
D|--5--4--2--7--7-------------------------4--6---------------------|
A|--5--4--2--5--7-------------------------4--6---------------------|
E|--3--2--0--0--5-------------------------2--4---------------------|

While 1st Guitar (play in line with above)
e|-----------------------------------------------------------------|
B|-----------------------------------------------------------------|
G|-----------------------------------------------------------------|
D|-----------------------------------------------------------------|
A|----------------------2----------2--------------2----------2-----|
E|--------------4-4-2-4---4--4-2-4---4-2--4-4-2-4---4--4-2-4---4-2-|

SOLO
e|---------------------------------------------------------|
B|---------------------------------------------------------|
G|---------------------------------------------------------|
D|---------------------------------------------------------|
A|-----6--7--9--11--9--7--6/4--6--7--9--11--9--7--6/4------|
E|---------------------------------------------------------|

e|---------------------------------------------------------|
B|---------------------------------------------------------|
G|---------------------------------------------------------|
D|---------------------------------------------------------|
A|------6-6-6----6/12\7-7-7----7/13\9-9-9-9--11-11-11-11---|
E|---------------------------------------------------------|

e|---------------------------------------------------------|
B|---------------------------------------------------------|
G|-------9----------11--13----------16/18------------------|
D|-------x-----------x---x-----------x/-x------------------|
A|-------7-----------9--11----------14/16------------------|
E|---------------------------------------------------------|

CHORUS
Both Guitars                          'But I dont care'
e|---3------0------0------0------|-----------0-------------|
B|---2------3------0------0------|-----------3-------------|
G|---3------3------1------4------|-----------3-------------|
D|---0------3------2------4------|-x2--------3-------------|
A|---0------0------2------2------|-----------0-------------|
E|---0------0------0------0------|-----------0-------------|

Then 2nd Guitar
  'No way back from,                      here'
e|-----------------------------------------------------------------|
B|-----------------------------------------------------------------|
G|-----------7-----------------------------------------------------|
D|--5--4--2--7--7-7-----------------------4--6---------------------|
A|--5--4--2--5--7-7-----------------------4--6---------------------|
E|--3--2--0--0--5-5-----------------------2--4---------------------|

While 1st Guitar (play in line with above)
e|-----------------------------------------------------------------|
B|-----------------------------------------------------------------|
G|-----------------------------------------------------------------|
D|-----------------------------------------------------------------|
A|----------------------2----------2--------------2----------2-----|
E|--------------4-4-2-4---4--4-2-4---4-2--4-4-2-4---4--4-2-4---4-2-|
Suggest correction new What's this?
You can suggest a correction to this tab. Community and Mods will review your correction and vote to approve or reject it.
comments
We did not receive enough feedback on this tab! Please rate:
print report bad tab
1 2 3 4 5
1 comment total.
0 reply
BrokenWingman 171 wrote on March 18 2006, 04:36 am

The first two chords are wrong in the chorus.

They're just D and A, you have intended to tab them as such, but you messed up on the tabbing

guest
You may want to rate the tab now too:
select rating
Please do not post tabs as comments. Select "correction" instead!