Oops, an error
Loading. Please wait.

No Way Back Tab

version 4
version 4

Whole song

65,573 views 57 this week
12 commentsread comments
1 2 3 4 5
x 36
add to favorites
launch autoscroll
font size
0
reset
how to read this tab
guitar tuner
Autoscroll
slow
fast
+/-
esc
set tempo
stop
Help us to improve Ultimate-Guitar.com Take our survey!
×
Author
--------------------------------------------------------------------------
                             FOO FIGHTERS - No Way Back
--------------------------------------------------------------------------
Tabbed by: 5h4d3
Email: shade@chello.hu

Tuning: Standard

This is my first tab so it might not be good enough but it worth a try.
I hope you will find it useful.

[Intro] (x2)
e|------------------------------------------------------------------------|
B|------------------------------------------------------------------------|
G|-9-9-----------------------------7-9------------------------------------|
D|-9-9-------9--------------9------7-9--------9--------------9------------| 
A|-7-7--9h11---11--11--9h11---11---5-7---9h11---11--11--9h11---11---------|
E|-7-7-----------------------------5-7------------------------------------|
                                     
Intro continued (x1)
e|------------------------------------------------------------------------|
B|------------------------------------------------------------------------|
G|-7-9-----------------------------7-9------------------------------------|
D|-7-9-------9--------------9------7-9--------9--------------9------------| 
A|-5-7--9h11---11--11--9h11---11---5-7---9h11---11--11--9h11---11---------|
E|-5-7-----------------------------5-7------------------------------------|

[Verse] (Guitar 1)  (x2)                             Guitar 2
e|------------------------------------------|      e|----|
B|------------------------------------------|      B|----|
G|-8-9-8-6-8-9-11-13-----Play the-----------|      G|----| 
D|-x-x-x-x-x-x-x--x------first intro--------|      D|-7--| 
A|-6-7-6-4-6-7-9--11-----line 1 time--------|      A|-7--|
E|------------------------------------------|      E|-5--|
   Lately, Ive been living in my head...

[Chorus] (x2)
e|--------00000--00000--00000---------------|
B|-77777--00000--00000--00000---------------|
G|-77777--66666--11111--44444---------------|
D|-77777--77777--22222--44444---------------|
A|-55557--77777--22222--22222---------------|
E|--------55555--00000----------------------|
   Pleased to meet you take my hand...

e|-00000------------------------------------|
B|-00000------------------------------------|
G|-66666--------------------7---------------|
D|-77777--------------5-4-2-7-2-------------|
A|-77777--------------5-4-2-5-2-------------|
E|-55555--------------3-2-0---0-------------|
   But I dont care... No way back from here

[Solo]
e|------------------------------------------------------------------------|
B|------------------------------------------------------------------------|
G|------------------------------------------------------------------------|
D|------------------------------------------------------------------------|
A|-6-0-7-0-9-0-11-0-9-0-7-0-6\4-6-0-7-0-9-0-11-0-9-0-7-0-6\4--------------|
E|------------------------------------------------------------------------|


e|------------------------------------------------------------------------|
B|------------------------------------------------------------------------|
G|-8-8-8-9-9-9-11-11-11-13-13-13-13-13-13-13-13-13-13/19b-----------------|
D|-x-x-x-x-x-x-x--x--x--x--x--x--x--x--x--x--x--x--x----------------------|
A|-6-6-6-7-7-7-9--9--9--11-11-11-11-11-11-11-11-11-11/17b-----------------|
E|------------------------------------------------------------------------|


[Outro] (same as the intro with a slight variation: chords are being held for a shorter time)
e|---------------------|
B|---------------------|
G|-7-------------------|
D|-7-------------------|
A|-5-------------------|
E|---------------------|
   ->The last note is a D 


Guitar 2 strums the A chord throughout the verses and the solo.

Song structure:
[Intro]
[Verse]
[Chorus]
[Verse]
[Chorus]
[Solo]
[Chorus]
[Outro]


****************************************************

| /  slide up
| \  slide down
| h  hammer-on
| p  pull-off
| b  bend
| ~  vibrato
| +  harmonic
| x  Mute note

****************************************************
Suggest correction
comments
print report bad tab
12 comments total. Showing first comments.
+1 reply
pantsareoffsky 31 May 30, 2006 10:26 AM

good tab! this really helped alot ^_^

+1 reply
violent empathy 16 Jul 29, 2006 06:02 AM

good tab dude 5 stars easy awesome 4 a first tab

+2 reply
5h4d3 50 Jul 29, 2006 06:11 AM

Thank you guys :) hope it helped.

guest
You may want to rate the tab now too:
select rating
Wanna post a correction for this tab? Suggest correction