Oops, an error
Loading. Please wait.

Normal Tab

version 2
version 2

Whole song

Interactive

1,860 views 3 this week
no commentswrite comment
1 2 3 4 5
accurate
x 3
add to favorites
launch autoscroll
font size
0
reset
how to read this tab
guitar tuner
Tab Pro tools
  • play this tab
  • loop segment
  • change instrument
  • show fretboard
  • metronome
×
Best way to learn
"Normal"
Autoscroll
slow
fast
+/-
esc
set tempo
stop
Contributor





~ = let ring
p = pull off
h = hammer on
s = slide

----Intro/Chorus-----
Rhythm

e|-----------------------------------|
B|-----------------------------------|
G|--------6-6-6--4-4-4---------------|   x4
D|-7-7-7--6-6-6--4-4-4--4-4-6--------|
A|-7-7-7--4-4-4--2-2-2--4-4-6--------|
E|-5-5-5----------------2-2-4--------|

Lead
e|---------------------------------------------|
B|-12-12-12--9-9-9-----------------------------|
G|-9--9--9---9-9-9--8--8-8-8-8-8--8h9-9h11-----|
D|---------------------------------------------|
A|---------------------------------------------|
E|---------------------------------------------|

e|---------------------------------------------|
B|-12-12-12--9-9-9-----------------------------|
G|-9--9--9---9-9-9--8--8-8-8-8-8--8h9-9h11-----|
D|---------------------------------------------|
A|---------------------------------------------|
E|---------------------------------------------|

e|-----------------------------------------|
B|-12-12-12--12-10-9--9-9-9----------------|
G|-9--9--9---9--9--9--9-9-9--8--8-8--8h9---|
D|-----------------------------------------|
A|-----------------------------------------|
E|-----------------------------------------|

e|---------------------------------------------|
B|-12-12-12--9-9-9-----------------------------|
G|-9--9--9---9-9-9--11~------------------------|
D|---------------------------------------------|
A|---------------------------------------------|
E|---------------------------------------------|


-------Verse-------

Rhythm
e|---------------------------------|
B|----------5--------------7-------|
G|--------6---6----------8---8-----|
D|------7-------7------9-------9---|
A|----7---------------9------------|
E|--5--------------5s7-------------|

Lead
e|-----------------------------------|
B|-----------------------------------|
G|--9h11-9~--8--6--8-----------------|
D|-----------x--x--x-----------------|
A|-----------6--4--6-----------------|
E|-----------------------------------|

Verse Rhythm continues



Prechorus
e|-----------------------------------|
B|-----------------------------------|
G|-----------------------------------|
D|---7----9----11----13--------------|  x2
A|---x----x----x-----x---------------|
E|---5----7----9-----11--------------|
But i wont give up....


e|-0----2---3---5---------------------|
B|-0----2---3---5---------------------|
G|-1----2---4---6---------------------|
D|-2----4---5---7---------------------|
A|-2----4---5---5---------------------|
E|-0----2---3---5---------------------|
Figured it out....




-------Repeat Intro/chorus w/o lead once


------Repeat Verse w/o lead

-------2nd Prechorus

(Guitars 1 & 2  first measure)
e|-----------------------------------|
B|-----------------------------------|
G|-----------------------------------|
D|---7----9----11----13--------------|
A|---x----x----x-----x---------------|
E|---5----7----9-----11--------------|
But i wont give up....


(Guitar 1  2nd measure)
e|-----------------------------------|
B|-----------------------------------|
G|-----------------------------------|
D|---7----9----11----13--------------|
A|---x----x----x-----x---------------|
E|---5----7----9-----11--------------|

(Guitar 2   2nd measure)
e|-----------------------------------|
B|-----------------------------------|
G|--9---11---13---16-----------------|
D|--x---x----x----x------------------|
A|--7---9----11---14-----------------|  x1
E|-----------------------------------|



e|-0----2---3---5---------------------|
B|-0----2---3---5---------------------|
G|-1----2---4---6---------------------|
D|-2----4---5---7---------------------|
A|-2----4---5---5---------------------|
E|-0----2---3---5---------------------|
Figured it out....



----------Repeat chorus x2


----------Break

Rhythm
e|-0----2---3---5---------------------|
B|-0----2---3---5---------------------|
G|-1----2---4---6---------------------|
D|-2----4---5---7---------------------|
A|-2----4---5---5---------------------|  x2
E|-0----2---3---5---------------------|


Lead (solo)
e|-----------------------------------------------|
B|-----------------------------------------------|
G|-----9p6---------------------------------------|
D|---------9p6-----------------------------------|
A|---7---------7--7s9--7--9p7-9p7-9s10-----------|
E|-----------------------------------------------|

e|-----------------------------------|
B|-----------------------------------|
G|--9p6------9h11--------------------|
D|------9p6-------11~--9s11--9--7--6-|
A|-----------------------------------|
E|-----------------------------------|

e|-----------------------------------------------|
B|-----------------------------------------------|
G|-----9p6---------------------------------------|
D|---------9p6-----------------------------------|
A|-------------7--7s9--7--9p7-9p7-9s10-----------|
E|-----------------------------------------------|

e|-----------------------------------|
B|-----------------------------------|
G|--9p6------9h11--------------------|
D|------9p6-------11~--11\\\---------|
A|-----------------------------------|
E|-----------------------------------|


Repeat chorus w/o lead x4

Repeat Chorus with lead x7

End with:
e|-----------------------------------|
B|-----------------------------------|
G|------6---4~-----------------------|
D|--7---6---4~-----------------------|
A|--7---4---2~-----------------------|
E|--5--------------------------------|
comments
We did not receive enough feedback on this tab! Please rate:
print report bad tab
1 2 3 4 5
I want to post or [tab]
guest
You may want to rate the tab now too:
select rating
Please do not post tabs as comments. Select "correction" instead!