Oops, an error
Loading. Please wait.

On The Mend Tab

version 1
version 1

Intro

Whole song

Interactive

5,044 views 1 this week
no commentswrite comment
1 2 3 4 5
accurate
x 3
add to favorites
launch autoscroll
font size
0
reset
how to read this tab
guitar tuner
Autoscroll
slow
fast
+/-
esc
set tempo
stop
Help us to improve Ultimate-Guitar.com Take our survey!
×
Difficulty
intermediate
Ok...this part it's keep repeating all over the song , even in the chours...

One more day that i've survived
e||-----------2---------4--------------||
B||----0----------0-----------0--------||
G||------3----------3-----------3------||
D||--4------4---4-----4-----4-----4----||
A||------------------------------------||
E||------------------------------------||


Another night alone [...]
e||-----------2---------0--------------||
B||----0----------0-----------0--------||
G||------1----------1-----------1------||
D||--2------2---2-----2-----2-----2----||
A||------------------------------------||
E||------------------------------------||


This is the second part which is a kind of bridge after chours..

Was it you?
e||----------6---------6---------6----------6----------6-------||
B||----4----------4---------4---------4----------4----------4--||
G||------4----------4---------4---------4----------4-----------||
D||--6-----6----6-----6---6-----6---6-----6----6-----6----6----||
A||------------------------------------------------------------||
E||------------------------------------------------------------||

Sat alone
e||----------5---------5---------5----------5-||
B||----3----------3---------3---------3-------||
G||------4----------4---------4---------4-----||
D||--5-----5----5-----5---5-----5---5-----5---||
A||-------------------------------------------||
E||-------------------------------------------||

Also there's another strumming guitar in the background who plays the armonica... F# / E 
and G#m/G on the afterchours bridge

rubentalent 2006
Suggest correction new What's this?
You can suggest a correction to this tab. Community and Mods will review your correction and vote to approve or reject it.
comments
We did not receive enough feedback on this tab! Please rate:
print report bad tab
1 2 3 4 5
guest
You may want to rate the tab now too:
select rating
Please do not post tabs as comments. Select "correction" instead!