Oops, an error
Loading. Please wait.

On The Mend Tab

version 1
version 1

Whole song

Interactive

34,110 views 18 this week
4 commentsread comments
1 2 3 4 5
excellent!
x 25
add to favorites
launch autoscroll
font size
0
reset
how to read this tab
guitar tuner
Autoscroll
slow
fast
+/-
esc
set tempo
stop
Help us to improve Ultimate-Guitar.com Take our survey!
×
Author
oneweak 118
Foo Fighters - On The Mend

Album: In Your Honor - 2005
Instrument: Guitar
Tuning: Standard

Tabbed By: Kerim B. Jansson


- Verse -
 
Guitar 1:

e||-----0------0---------||
B||-----0------0---------||
G||-----3------1---------||
D||-----4------2---------||
A||-----4------2---------||
E||-----2------0---------||


Guitar 2:

e||-----------2-------4-------------2-------0-----||
B||----0----------0-----0-----0---------0-----0---||
G||------3----------3-----------3---------3-------||
D||--4------4---4-----------4-----4---4-----------||
A||-----------------------------------------------||
E||-----------------------------------------------||


- Chorus -  


Guitar 1

e||-----4------3---------||
B||-----4------3---------||
G||-----4------4---------||
D||-----6------5---------||
A||-----6------5---------||
E||-----4------3---------||

Guitar 2

e||--------6----||     e||--------5----||
B||---0---------||     B||---0---------||
G||-------------||     G||-------------||
D||-----6--6----|| x5  D||-----5--5----|| x4
A||-------------||     A||-------------||
E||-------------||     E||-------------||


- Solo -

Guitar 1

[03:40]

e||-----------------------------------------------||
B||-----------------------------------------------||
G||-----------------------------------------------||
D||---8-9-8-9s11--11h13p11-11h13-14-13-11-9-------||
A||-----------------------------------------------||
E||-----------------------------------------------||

e||-----------------------------------------------||
B||-----------------------------------------------||
G||-----------------------------------------------||
D||---11-9-8-9-8-6-8-6-4-6-2-4-2-1----------------||
A||-----------------------------------------------||
E||-----------------------------------------------||

e||-----------------------------------------------||
B||-----------------------------------------------||
G||-----------------------------------------------||
D||---2-2s4-4s6-6s8-8s9-9s11----------------------||
A||-----------------------------------------------||
E||-----------------------------------------------||

e||-----------------------------------------------||
B||-----------------------------------------------||
G||-----------------------------------------------||
D||---11s9-9s8-8s6-6--11s9-9s8-8s6-6--------------||
A||-----------------------------------------------||
E||-----------------------------------------------||

Guitar 2

[03:55] 

e||-----------------------------------------------||
B||-----------------------------------------------||
G||---11-13-11-13-13s15-15-16-15-16-18-16-15-13---||
D||-----------------------------------------------||
A||-----------------------------------------------||
E||-----------------------------------------------||

e||-----------------------------------------------||
B||-----------------------------------------------||
G||---15-13-11-13-11-9-11-9-8-9-8-6-8-6-4h6-------||
D||-----------------------------------------------||
A||-----------------------------------------------||
E||-----------------------------------------------||


Fade Out
Suggest correction new What's this?
You can suggest a correction to this tab. Community and Mods will review your correction and vote to approve or reject it.
comments
print report bad tab
4 comments total. Showing first comments.
0 reply
the_furk 173 wrote on June 25 2005, 12:00 am

I do really like it. And you are really close... But this is how I play the G2 part of the verse:

e||---------2---------4----------------2---------0-------------||
B||---0---------0---------0------0---------0---------0---------||
G||-----3---------3---------3------3---------3---------3-------||
D||-4-----4---4-----4---4------4-----4---4-----4---4-----------||
A||------------------------------------------------------------||
E||------------------------------------------------------------||

Solo might be slightly off too... but a very good job none the less.
4 Stars ****

0 reply
RS-GUITARIST 280 wrote on June 1 2006, 07:21 pm

amazzzzzzz- ing

from the year 2006
some time in 2010, ppl will look at this tab and say :) leet mobile frack. bleep beep

0 reply
farazz.bronx 11 wrote on July 21 2013, 02:35 am

the main intro backdrop is off. The correct version, in my opinion, is this. Its how i play it anyhow.

e||---------2---------4-------------------2----------0----------||
B||---0---------0---------0---------2-----------2---------0-----||
G||-----3---------3---------3---------4-----------4---------3---||
D||-4-----4---4-----4---4------4--2-----2----2------2---2-----2-||
A||-------------------------------------------------------------||
E||-------------------------------------------------------------||

guest
You may want to rate the tab now too:
select rating
Please do not post tabs as comments. Select "correction" instead!