Oops, an error
Loading. Please wait.

Over And Out Tab

version 3
version 3

Whole song

Interactive

60,815 views 54 this week
7 commentsread comments
1 2 3 4 5
x 46
add to favorites
launch autoscroll
font size
0
reset
how to read this tab
guitar tuner
Autoscroll
slow
fast
+/-
esc
set tempo
stop
Help us to improve Ultimate-Guitar.com Take our survey!
×
Author
Foo Fighters - Over And Out

Album: 2005 - In Your Honor
Instrument: Guitar
Tuning: eBGDa


[Intro]
e||------------------------------------------||
B||------------------------------------------||
G||---------0---0---0------------------------||
D||----------------------4\5----4----2p0--0--||
A||----2----------2----0------0----0---------||
E||--0---0-----------------------------------||

e||---------------------------------------------||
B||---------------------------------------------||
G||---------0---0---0-------------------2p0-----||
D||----------------------4\5----4----2p0---2p0--||
A||----2----------2----0------0----0------------||
E||--0---0--------------------------------------||

e||------------------------------------------||
B||------------------------------------------||
G||---------0---0---0------------------------||
D||----------------------4\5----4----2p0--0--||
A||----2----------2----0------0----0---------||
E||--0---0-----------------------------------||

e||---------------||
B||---------------||
G||---------------||
D||------0-----0--||
A||----2-----0----||
E||--3-----2------||


[Verse]
e||------------------------------------------||
B||------------------------------------------||
G||---------0---0---0------------------------||
D||----------------------4\5----4----2p0--0--||
A||----2----------2----0------0----0---------||
E||--0---0-----------------------------------||

e||---------------------------------------------||
B||---------------------------------------------||
G||---------0---0---0-------------------2p0-----||
D||----------------------4\5----4----2p0---2p0--||
A||----2----------2----0------0----0------------||
E||--0---0--------------------------------------||

e||------------------------------------------||
B||------------------------------------------||
G||---------0---0---0------------------------||
D||----------------------4\5----4----2p0--0--||
A||----2----------2----0------0----0---------||
E||--0---0-----------------------------------||

e||---------------||
B||---------------||
G||---------------||
D||------0-----0--||
A||----2-----0----||
E||--3-----2------||

e||------------------------------------------||
B||------------------------------------------||
G||---------0---0---0------------------------||
D||----------------------4\5----4----2p0--0--||
A||----2----------2----0------0----0---------||
E||--0---0-----------------------------------||

e||---------------------------------------------||
B||---------------------------------------------||
G||---------0---0---0-------------------2p0-----||
D||----------------------4\5----4----2p0---2p0--||
A||----2----------2----0------0----0------------||
E||--0---0--------------------------------------||

e||------------------------------------------||
B||------------------------------------------||
G||---------0---0---0------------------------||
D||----------------------4\5----4----2p0--0--||
A||----2----------2----0------0----0---------||
E||--0---0-----------------------------------||

e||---------------------------------------------||
B||---------------------------------------------||
G||---------0---0---0-------------------2p0-----||
D||----------------------4\5----4----2p0---2p0--||
A||----2----------2----0------0----0------------||
E||--0---0--------------------------------------||

e||------------------------------------------||
B||------------------------------------------||
G||---------0---0---0------------------------||
D||----------------------4\5----4----2p0--0--||
A||----2----------2----0------0----0---------||
E||--0---0-----------------------------------||

e||---------------------------------||
B||---------------------------------||
G||----------------------0---0---0--||
D||------0-----0--------------------||
A||----2-----0------2----------2----||
E||--3-----2------0---0-------------||

e||---------------------------------||
B||---------------------------------||
G||----------------------0---0---0--||
D||------0-----0--------------------||
A||----2-----0------2----------2----||
E||--3-----2------0---0-------------||

e||---------------||
B||---------------||
G||---------------||
D||------0-----0--||
A||----2-----0----||
E||--3-----2------||


[Pre-Chorus]
e||-0-0-0-0-0-0-0-0-0-||
B||-0-0-0-0-0-0-0-0-0-||
G||-0-0-0-0-0-0-0-0-0-||
D||-4-4-4-4-4-4-4-4-4-||
A||-2-2-2-2-2-2-2-2-2-||
E||-0-0-0-0-0-0-0-0-0-||


[Chorus]
e||-3-3-3-3-3-3-3-3--3-3-3-3-3-3-3-3-||
B||-3-3-3-3-3-3-3-3--3-3-3-3-3-3-3-3-||
G||-0-0-0-0-0-0-0-0--0-0-0-0-0-0-0-0-||
D||-2-2-2-2-2-2-2-2--2-2-2-2-2-2-2-2-||
A||-0-0-0-0-0-0-0-0--0-0-0-0-0-0-0-0-||
E||----------------------------------||

e||-3-3-3-3-3-3-3-3--3-3-3-3-3-3-3-3-||
B||-3-3-3-3-3-3-3-3--3-3-3-3-3-3-3-3-||
G||-0-0-0-0-0-0-0-0--0-0-0-0-0-0-0-0-||
D||-0-0-0-0-0-0-0-0--0-0-0-0-0-0-0-0-||
A||-x-x-x-x-x-x-x-x--x-x-x-x-x-x-x-x-||
E||-3-3-3-3-3-3-3-3--3-3-3-3-3-3-3-3-||


[Outro]
e||-0-0-0-0-0-0-0-0--0-0-0-0-0-0-0-0-||
B||-3-3-3-3-3-3-3-3--2-2-2-2-2-2-2-2-||
G||-0-0-0-0-0-0-0-0--0-0-0-0-0-0-0-0-||
D||-2-2-2-2-2-2-2-2--2-2-2-2-2-2-2-2-||
A||-2-2-2-2-2-2-2-2--0-0-0-0-0-0-0-0-||
E||-0-0-0-0-0-0-0-0------------------||

e||-3-----3-----0-||
B||-3-----3-----3-||
G||-0-----0-----0-||
D||-0-----0-----2-||
A||-2-----x-----2-||
E||-3-----2-----0-||


* Lyrics *

Restless little one
Comfortable and warm
Let me fall apart
Crippled in your arms

Chase me through the dark
Ready, on your mark
The first to reach the stars
Wins a broken heart
One that broke apart
Shattered from the start

Are you there
Do you read me
Are you there
I don't feel you anymore

Cages and alarms
Keeping us from harm
I will be the guard
Hope to rest upon

Could I be the one
To break a will so strong
Pray it won't be long
'til your will is gone
Everything is done
Nothing left at all

Are you there
Do you read me
Are you there
I don't feel you anymore

Are you there
Will you give in
Are you there
If I give out
Over and out

Cages and alarms
Keeping us from harm
I will be the guard
Hope to rest upon
Everything is done
Nothing left at all

Are you there
Do you read me
Are you there
I don't feel you anymore

Are you there
Will you give in
Are you there
If I give out



************************************

| p  Pull-off
| \  Slide down
| x  Dead note

************************************
Suggest correction
comments
print report bad tab
7 comments total. Showing first comments.
0 reply
Stampy_t 10 Aug 20, 2007 07:59 AM

This is great 5*

0 reply
[[.:jess:.]] 83 Aug 18, 2008 04:05 PM

This is a million times better than the other one.
Good job. :]

0 reply
J-E-N-O-V-A 10 Sep 09, 2008 02:16 PM


e||------------------------------------------||
B||--------------------------------------------||
G||---------0---0---0--------------------------||
D||----------------------4\5----4------2p0--0--||
A||----2----------2----0------0----(0)---------||
E||--0---0-------------------------------------||

guest
You may want to rate the tab now too:
select rating
Wanna post a correction for this tab? Suggest correction