Oops, an error
Loading. Please wait.

Over And Out Tab

version 4
version 4

Whole song

Interactive

2,190 views 3 this week
2 commentsread comments
1 2 3 4 5
x 4
add to favorites
launch autoscroll
font size
0
reset
how to read this tab
guitar tuner
Autoscroll
slow
fast
+/-
esc
set tempo
stop
Help us to improve Ultimate-Guitar.com Take our survey!
×
Author
Difficulty
intermediate
Over and Out
Foo Fighters
In Your Honor

This is my first tab so I wanted to make it as complete as I could. This is one of my 
FF songs and it is fairly easy to learn. Enjoy!


  INTRO

e|----------------------|---------------------|
B|----------------------|---------------------|
G|----------0---0-----0-|---------------------|
D|----------------------|----4/5---4---2p---0-|
A|----2------------2----|-0-------------------|
E|-0-----0--------------|---------------------|

e|----------------------|---------------------|
B|----------------------|---------------------|
G|----------0---0-----0-|----------------2p---|
D|----------------------|----4/5---4---2p--2p-|
A|----2------------2----|-0-------------------|
E|-0-----0--------------|---------------------|

e|----------------------|--------------------------------------|
B|----------------------|--------------------------------------|
G|----------0---0-----0-|------------------0-------------------|
D|----------------------|----4/5---4---2p-----------0--------0-|
A|----2------------2----|-0----------------------2--------0----|
E|-0-----0--------------|---------------------3--------2-------|

  VERSE

e|----------------------|---------------------|
B|----------------------|---------------------|
G|----------0---0-----0-|---------------------|
D|----------------------|----4/5---4---2p---0-|
A|----2------------2----|-0-------------------|
E|-0-----0--------------|---------------------|
  restless  little  one

e|----------------------|---------------------|
B|----------------------|---------------------|
G|----------0---0-----0-|----------------2p---|
D|----------------------|----4/5---4---2p--2p-|
A|----2------------2----|-0-------------------|
E|-0-----0--------------|---------------------|
  comfortable   and       warm

e|----------------------|--------------------------------------|
B|----------------------|--------------------------------------|
G|----------0---0-----0-|------------------0-------------------|
D|----------------------|----4/5---4---2p-----------0--------0-|
A|----2------------2----|-0----------------------2--------0----|
E|-0-----0--------------|---------------------3--------2-------|
  let me    fall   apart                     crippled in your ar-


e|----------------------|---------------------|
B|----------------------|---------------------|
G|----------0---0-----0-|---------------------|
D|----------------------|----4/5---4---2p---0-|
A|----2------------2----|-0-------------------|
E|-0-----0--------------|---------------------|
 -ms

e|----------------------|---------------------|
B|----------------------|---------------------|
G|----------0---0-----0-|----------------2p---|
D|----------------------|----4/5---4---2p--2p-|
A|----2------------2----|-0-------------------|
E|-0-----0--------------|---------------------|

e|----------------------|---------------------|
B|----------------------|---------------------|
G|----------0---0-----0-|---------------------|
D|----------------------|----4/5---4---2p---0-|
A|----2------------2----|-0-------------------|
E|-0-----0--------------|---------------------|
  chase me through the dark

e|----------------------|---------------------|
B|----------------------|---------------------|
G|----------0---0-----0-|----------------2p---|
D|----------------------|----4/5---4---2p--2p-|
A|----2------------2----|-0-------------------|
E|-0-----0--------------|---------------------|
  ready     on your    mark

                                              PRE-CHORUS

e|----------------------|--------------------------------------|
B|----------------------|--------------------------------------|
G|----------0---0-----0-|------------------0-------------------|
D|----------------------|----4/5---4---2p-----------0--------0-|
A|----2------------2----|-0----------------------2--------0----|
E|-0-----0--------------|---------------------3--------2-------|
  first  to reach the start                  wins a broken heart

e|----------------------|----------------------------------------|
B|----------------------|----------------------------------------|
G|----------0---0-----0-|----------------------------0---0-----0-|
D|-------2--------------|-------0--------0--------2--------------|
A|----2------------2----|----2--------0--------2------------2----|
E|-0--------------------|-3--------2--------0--------------------|
                         one that broke apart

                                                  CHORUS

e|-------------------------------------------------------|
B|-------------------------------------------------------|
G|-------------------------------------------------------|
D|-------0--------0---4----4-4-4-4-4-4-4-4-4-4-4-4-4-4-4-|
A|----2--------0------2----2-2-2-2-2-2-2-2-2-2-2-2-2-2-2-|
E|-3--------2---------0----0-0-0-0-0-0-0-0-0-0-0-0-0-0-0-|
  shattered from the start                        are you

e|-0-0-0-0-0-0-0-0-0-0-0-0-0-0-0-0-0-0-0-0-0-0-|
B|-2-2-2-2-2-2-2-2-2-2-2-2-2-2-2-2-2-2-2-2-2-2-|
G|-0-0-0-0-0-0-0-0-0-0-0-0-0-0-0-0-0-0-0-0-0-0-|
D|-2-2-2-2-2-2-2-2-2-2-2-2-2-2-2-2-2-2-2-2-2-2-|
A|---------------------------------------------|
E|---------------------------------------------|
  there?

e|-3-3-3-3-3-3-3-3-3-3-3-3-3-3-3-3-3-3-3-3-3-3-|
B|-0-0-0-0-0-0-0-0-0-0-0-0-0-0-0-0-0-0-0-0-0-0-|
G|-0-0-0-0-0-0-0-0-0-0-0-0-0-0-0-0-0-0-0-0-0-0-|
D|-0-0-0-0-0-0-0-0-0-0-0-0-0-0-0-0-0-0-0-0-0-0-|
A|-2-2-2-2-2-2-2-2-2-2-2-2-2-2-2-2-2-2-2-2-2-2-|
E|-3-3-3-3-3-3-3-3-3-3-3-3-3-3-3-3-3-3-3-3-3-3-|
  do you read me?

e|-0-0-0-0-0-0-0-0-0-0-0-0-0-0-0-0-0-0-0-0-0-0-|
B|-2-2-2-2-2-2-2-2-2-2-2-2-2-2-2-2-2-2-2-2-2-2-|
G|-0-0-0-0-0-0-0-0-0-0-0-0-0-0-0-0-0-0-0-0-0-0-|
D|-2-2-2-2-2-2-2-2-2-2-2-2-2-2-2-2-2-2-2-2-2-2-|
A|---------------------------------------------|
E|---------------------------------------------|
  are you there?                        I don't

e|------------------|
B|------------------|
G|------------------|
D|-------0--------0-|
A|----2--------0----|
E|-3--------2-------|
  feel you anymore

  INTERLUDE

e|----------------------|---------------------|
B|----------------------|---------------------|
G|----------0---0-----0-|---------------------|
D|----------------------|----4/5---4---2p---0-|
A|----2------------2----|-0-------------------|
E|-0-----0--------------|---------------------|

e|----------------------|---------------------|
B|----------------------|---------------------|
G|----------0---0-----0-|----------------2p---|
D|----------------------|----4/5---4---2p--2p-|
A|----2------------2----|-0-------------------|
E|-0-----0--------------|---------------------|

  VERSE

e|----------------------|---------------------|
B|----------------------|---------------------|
G|----------0---0-----0-|---------------------|
D|----------------------|----4/5---4---2p---0-|
A|----2------------2----|-0-------------------|
E|-0-----0--------------|---------------------|
  cages    and   alarms

e|----------------------|---------------------|
B|----------------------|---------------------|
G|----------0---0-----0-|----------------2p---|
D|----------------------|----4/5---4---2p--2p-|
A|----2------------2----|-0-------------------|
E|-0-----0--------------|---------------------|
  keepin' us   from    harm

e|----------------------|--------------------------------------|
B|----------------------|--------------------------------------|
G|----------0---0-----0-|------------------0-------------------|
D|----------------------|----4/5---4---2p-----------0--------0-|
A|----2------------2----|-0----------------------2--------0----|
E|-0-----0--------------|---------------------3--------2-------|
  I will    be the   guard                    hope to rest upon

e|----------------------|---------------------|
B|----------------------|---------------------|
G|----------0---0-----0-|---------------------|
D|-------2--------------|----4/5---4---2p---0-|
A|----2------------2----|-0-------------------|
E|-0--------------------|---------------------|

e|----------------------|---------------------|
B|----------------------|---------------------|
G|----------0---0-----0-|---------------------|
D|----------------------|----4/5---4---2p---0-|
A|----2------------2----|-0-------------------|
E|-0-----0--------------|---------------------|
  could I be the one

e|----------------------|---------------------|
B|----------------------|---------------------|
G|----------0---0-----0-|----------------2p---|
D|----------------------|----4/5---4---2p--2p-|
A|----2------------2----|-0-------------------|
E|-0-----0--------------|---------------------|
  to break a will so strong?

                                              PRE-CHORUS

e|----------------------|--------------------------------------|
B|----------------------|--------------------------------------|
G|----------0---0-----0-|------------------0-------------------|
D|----------------------|----4/5---4---2p-----------0--------0-|
A|----2------------2----|-0----------------------2--------0----|
E|-0-----0--------------|---------------------3--------2-------|
  prey it won't be long                      'til your will is

e|----------------------|----------------------------------------|
B|----------------------|----------------------------------------|
G|----------0---0-----0-|----------------------------0---0-----0-|
D|-------2--------------|-------0--------0--------2--------------|
A|----2------------2----|----2--------0--------2------------2----|
E|-0--------------------|-3--------2--------0--------------------|
  gone                   ev'rythin' is done

                                                  CHORUS

e|-------------------------------------------------------|
B|-------------------------------------------------------|
G|-------------------------------------------------------|
D|-------0--------0---4----4-4-4-4-4-4-4-4-4-4-4-4-4-4-4-|
A|----2--------0------2----2-2-2-2-2-2-2-2-2-2-2-2-2-2-2-|
E|-3--------2---------0----0-0-0-0-0-0-0-0-0-0-0-0-0-0-0-|
  nothin' left  at   all                         are you

e|-0-0-0-0-0-0-0-0-0-0-0-0-0-0-0-0-0-0-0-0-0-0-|
B|-2-2-2-2-2-2-2-2-2-2-2-2-2-2-2-2-2-2-2-2-2-2-|
G|-0-0-0-0-0-0-0-0-0-0-0-0-0-0-0-0-0-0-0-0-0-0-|
D|-2-2-2-2-2-2-2-2-2-2-2-2-2-2-2-2-2-2-2-2-2-2-|
A|---------------------------------------------|
E|---------------------------------------------|
  there?

e|-3-3-3-3-3-3-3-3-3-3-3-3-3-3-3-3-3-3-3-3-3-3-|
B|-0-0-0-0-0-0-0-0-0-0-0-0-0-0-0-0-0-0-0-0-0-0-|
G|-0-0-0-0-0-0-0-0-0-0-0-0-0-0-0-0-0-0-0-0-0-0-|
D|-0-0-0-0-0-0-0-0-0-0-0-0-0-0-0-0-0-0-0-0-0-0-|
A|-2-2-2-2-2-2-2-2-2-2-2-2-2-2-2-2-2-2-2-2-2-2-|
E|-3-3-3-3-3-3-3-3-3-3-3-3-3-3-3-3-3-3-3-3-3-3-|
  do you read me?

e|-0-0-0-0-0-0-0-0-0-0-0-0-0-0-0-0-0-0-0-0-0-0-|
B|-2-2-2-2-2-2-2-2-2-2-2-2-2-2-2-2-2-2-2-2-2-2-|
G|-0-0-0-0-0-0-0-0-0-0-0-0-0-0-0-0-0-0-0-0-0-0-|
D|-2-2-2-2-2-2-2-2-2-2-2-2-2-2-2-2-2-2-2-2-2-2-|
A|---------------------------------------------|
E|---------------------------------------------|
  are you there?                        I don't

e|-3-3-3-3-3-3-3-3-3-3-3-3-3-3-3-3-3-3-3-3-3-3-|
B|-0-0-0-0-0-0-0-0-0-0-0-0-0-0-0-0-0-0-0-0-0-0-|
G|-0-0-0-0-0-0-0-0-0-0-0-0-0-0-0-0-0-0-0-0-0-0-|
D|-0-0-0-0-0-0-0-0-0-0-0-0-0-0-0-0-0-0-0-0-0-0-|
A|-2-2-2-2-2-2-2-2-2-2-2-2-2-2-2-2-2-2-2-2-2-2-|
E|-3-3-3-3-3-3-3-3-3-3-3-3-3-3-3-3-3-3-3-3-3-3-|
  feel you anymore

e|-0-0-0-0-0-0-0-0-0-0-0-0-0-0-0-0-0-0-0-0-0-0-|
B|-2-2-2-2-2-2-2-2-2-2-2-2-2-2-2-2-2-2-2-2-2-2-|
G|-0-0-0-0-0-0-0-0-0-0-0-0-0-0-0-0-0-0-0-0-0-0-|
D|-2-2-2-2-2-2-2-2-2-2-2-2-2-2-2-2-2-2-2-2-2-2-|
A|---------------------------------------------|
E|---------------------------------------------|
  are you there?

e|-3-3-3-3-3-3-3-3-3-3-3-3-3-3-3-3-3-3-3-3-3-3-|
B|-0-0-0-0-0-0-0-0-0-0-0-0-0-0-0-0-0-0-0-0-0-0-|
G|-0-0-0-0-0-0-0-0-0-0-0-0-0-0-0-0-0-0-0-0-0-0-|
D|-0-0-0-0-0-0-0-0-0-0-0-0-0-0-0-0-0-0-0-0-0-0-|
A|-2-2-2-2-2-2-2-2-2-2-2-2-2-2-2-2-2-2-2-2-2-2-|
E|-3-3-3-3-3-3-3-3-3-3-3-3-3-3-3-3-3-3-3-3-3-3-|
  will you give in?

e|-0-0-0-0-0-0-0-0-0-0-0-0-0-0-0-0-0-0-0-0-0-0-|
B|-2-2-2-2-2-2-2-2-2-2-2-2-2-2-2-2-2-2-2-2-2-2-|
G|-0-0-0-0-0-0-0-0-0-0-0-0-0-0-0-0-0-0-0-0-0-0-|
D|-2-2-2-2-2-2-2-2-2-2-2-2-2-2-2-2-2-2-2-2-2-2-|
A|---------------------------------------------|
E|---------------------------------------------|
  are you there?                           if I

           BRIDGE

e|-----------------0-0-0-0-0-0-0-0-0-0-0-0-0-0-0-0-|
B|-----------------3-3-3-3-3-3-3-3-2-2-2-2-2-2-2-2-|
G|-0-0-0-0-0-0-0-0-0-0-0-0-0-0-0-0-0-0-0-0-0-0-0-0-|
D|-0-0-0-0-0-0-0-0-2-2-2-2-2-2-2-2-2-2-2-2-2-2-2-2-|
A|-2-2-2-2-0-0-0-0-2-2-2-2-2-2-2-2-----------------|
E|-3-3-3-3-2-2-2-2-0-0-0-0-0-0-0-0-----------------|
  give     out

e|-0-0-0-0-0-0-0-0-0-0-0-0-0-0-0-0-|-0-0-0-0-0-0-0-0-0-0-0-0-0-0-0-0-|
B|-3-3-3-3-3-3-3-3-2-2-2-2-2-2-2-2-|-3-3-3-3-3-3-3-3-2-2-2-2-2-2-2-2-|
G|-0-0-0-0-0-0-0-0-0-0-0-0-0-0-0-0-|-0-0-0-0-0-0-0-0-0-0-0-0-0-0-0-0-|
D|-2-2-2-2-2-2-2-2-2-2-2-2-2-2-2-2-|-2-2-2-2-2-2-2-2-2-2-2-2-2-2-2-2-|
A|-2-2-2-2-2-2-2-2-----------------|-2-2-2-2-2-2-2-2-----------------|
E|-0-0-0-0-0-0-0-0-----------------|-0-0-0-0-0-0-0-0-----------------|
  ooh                      over and out                           ooh

e|-0-0-0-0-0-0-0-0-0-0-0-0-0-0-0-0-|-0-0-0-0-0-0-0-0-0-0-0-0-0-0-0-0-|
B|-3-3-3-3-3-3-3-3-2-2-2-2-2-2-2-2-|-3-3-3-3-3-3-3-3-2-2-2-2-2-2-2-2-|
G|-0-0-0-0-0-0-0-0-0-0-0-0-0-0-0-0-|-0-0-0-0-0-0-0-0-0-0-0-0-0-0-0-0-|
D|-2-2-2-2-2-2-2-2-2-2-2-2-2-2-2-2-|-2-2-2-2-2-2-2-2-2-2-2-2-2-2-2-2-|
A|-2-2-2-2-2-2-2-2-----------------|-2-2-2-2-2-2-2-2-----------------|
E|-0-0-0-0-0-0-0-0-----------------|-0-0-0-0-0-0-0-0-----------------|
  ooh                               cages and alarms

e|-0-0-0-0-0-0-0-0-0-0-0-0-0-0-0-0-|-0-0-0-0-0-0-0-0-0-0-0-0-0-0-0-0-|
B|-3-3-3-3-3-3-3-3-2-2-2-2-2-2-2-2-|-3-3-3-3-3-3-3-3-2-2-2-2-2-2-2-2-|
G|-0-0-0-0-0-0-0-0-0-0-0-0-0-0-0-0-|-0-0-0-0-0-0-0-0-0-0-0-0-0-0-0-0-|
D|-2-2-2-2-2-2-2-2-2-2-2-2-2-2-2-2-|-2-2-2-2-2-2-2-2-2-2-2-2-2-2-2-2-|
A|-2-2-2-2-2-2-2-2-----------------|-2-2-2-2-2-2-2-2-----------------|
E|-0-0-0-0-0-0-0-0-----------------|-0-0-0-0-0-0-0-0-----------------|
  keepin' us from harm              I will be the guard

e|-----------------0-0-0-0-0-0-0-0-|-----------------0-0-0-0-0-0-0-0-|
B|-----------------3-3-3-3-3-3-3-3-|-----------------3-3-3-3-3-3-3-3-|
G|-0-0-0-0-0-0-0-0-0-0-0-0-0-0-0-0-|-0-0-0-0-0-0-0-0-0-0-0-0-0-0-0-0-|
D|-0-0-0-0-0-0-0-0-2-2-2-2-2-2-2-2-|-0-0-0-0-0-0-0-0-2-2-2-2-2-2-2-2-|
A|-2-2-2-2-0-0-0-0-2-2-2-2-2-2-2-2-|-2-2-2-2-0-0-0-0-2-2-2-2-2-2-2-2-|
E|-3-3-3-3-2-2-2-2-0-0-0-0-0-0-0-0-|-3-3-3-3-2-2-2-2-0-0-0-0-0-0-0-0-|
  hope to rest upon                 Ev'rythin' is done

                                               CHORUS

e|----------------------------------------------------|
B|----------------------------------------------------|
G|----------------------------------------------------|
D|-0-0-0-0-0-0-0-0-4----4-4-4-4-4-4-4-4-4-4-4-4-4-4-4-|
A|-2-2-2-2-0-0-0-0-2----2-2-2-2-2-2-2-2-2-2-2-2-2-2-2-|
E|-3-3-3-3-2-2-2-2-0----0-0-0-0-0-0-0-0-0-0-0-0-0-0-0-|
  nothin'  left   at   all                    are you

e|-0-0-0-0-0-0-0-0-0-0-0-0-0-0-0-0-0-0-0-0-0-0-|
B|-2-2-2-2-2-2-2-2-2-2-2-2-2-2-2-2-2-2-2-2-2-2-|
G|-0-0-0-0-0-0-0-0-0-0-0-0-0-0-0-0-0-0-0-0-0-0-|
D|-2-2-2-2-2-2-2-2-2-2-2-2-2-2-2-2-2-2-2-2-2-2-|
A|---------------------------------------------|
E|---------------------------------------------|
  there?

e|-3-3-3-3-3-3-3-3-3-3-3-3-3-3-3-3-3-3-3-3-3-3-|
B|-0-0-0-0-0-0-0-0-0-0-0-0-0-0-0-0-0-0-0-0-0-0-|
G|-0-0-0-0-0-0-0-0-0-0-0-0-0-0-0-0-0-0-0-0-0-0-|
D|-0-0-0-0-0-0-0-0-0-0-0-0-0-0-0-0-0-0-0-0-0-0-|
A|-2-2-2-2-2-2-2-2-2-2-2-2-2-2-2-2-2-2-2-2-2-2-|
E|-3-3-3-3-3-3-3-3-3-3-3-3-3-3-3-3-3-3-3-3-3-3-|
  do you read me?

e|-0-0-0-0-0-0-0-0-0-0-0-0-0-0-0-0-0-0-0-0-0-0-|
B|-2-2-2-2-2-2-2-2-2-2-2-2-2-2-2-2-2-2-2-2-2-2-|
G|-0-0-0-0-0-0-0-0-0-0-0-0-0-0-0-0-0-0-0-0-0-0-|
D|-2-2-2-2-2-2-2-2-2-2-2-2-2-2-2-2-2-2-2-2-2-2-|
A|---------------------------------------------|
E|---------------------------------------------|
  are you there?                        I don't

e|-3-3-3-3-3-3-3-3-3-3-3-3-3-3-3-3-3-3-3-3-3-3-|
B|-0-0-0-0-0-0-0-0-0-0-0-0-0-0-0-0-0-0-0-0-0-0-|
G|-0-0-0-0-0-0-0-0-0-0-0-0-0-0-0-0-0-0-0-0-0-0-|
D|-0-0-0-0-0-0-0-0-0-0-0-0-0-0-0-0-0-0-0-0-0-0-|
A|-2-2-2-2-2-2-2-2-2-2-2-2-2-2-2-2-2-2-2-2-2-2-|
E|-3-3-3-3-3-3-3-3-3-3-3-3-3-3-3-3-3-3-3-3-3-3-|
  feel you anymore

e|-0-0-0-0-0-0-0-0-0-0-0-0-0-0-0-0-0-0-0-0-0-0-|
B|-2-2-2-2-2-2-2-2-2-2-2-2-2-2-2-2-2-2-2-2-2-2-|
G|-0-0-0-0-0-0-0-0-0-0-0-0-0-0-0-0-0-0-0-0-0-0-|
D|-2-2-2-2-2-2-2-2-2-2-2-2-2-2-2-2-2-2-2-2-2-2-|
A|---------------------------------------------|
E|---------------------------------------------|
  are you there?

e|-3-3-3-3-3-3-3-3-3-3-3-3-3-3-3-3-3-3-3-3-3-3-|
B|-0-0-0-0-0-0-0-0-0-0-0-0-0-0-0-0-0-0-0-0-0-0-|
G|-0-0-0-0-0-0-0-0-0-0-0-0-0-0-0-0-0-0-0-0-0-0-|
D|-0-0-0-0-0-0-0-0-0-0-0-0-0-0-0-0-0-0-0-0-0-0-|
A|-2-2-2-2-2-2-2-2-2-2-2-2-2-2-2-2-2-2-2-2-2-2-|
E|-3-3-3-3-3-3-3-3-3-3-3-3-3-3-3-3-3-3-3-3-3-3-|
  will you give in?

e|-0-0-0-0-0-0-0-0-0-0-0-0-0-0-0-0-0-0-0-0-0-0-|
B|-2-2-2-2-2-2-2-2-2-2-2-2-2-2-2-2-2-2-2-2-2-2-|
G|-0-0-0-0-0-0-0-0-0-0-0-0-0-0-0-0-0-0-0-0-0-0-|
D|-2-2-2-2-2-2-2-2-2-2-2-2-2-2-2-2-2-2-2-2-2-2-|
A|---------------------------------------------|
E|---------------------------------------------|
  are you there?                           if I

e|-------------------|
B|-------------------|
G|-------------------|
D|-------0--------0--|
A|----2--------0-----|
E|-3--------2--------|
  give      out

  OUTRO

e|----------------------|---------------------|
B|----------------------|---------------------|
G|----------0---0-----0-|---------------------|
D|----------------------|----4/5---4---2p---0-|
A|----2------------2----|-0-------------------|
E|-0-----0--------------|---------------------|

e|----------------------|------------------------|
B|----------------------|------------------------|
G|----------0---0-----0-|----------------2p------|
D|----------------------|----4/5---4---2p--2p----|
A|----2------------2----|-0----------------------|
E|-0-----0--------------|----------------------0-|
Suggest correction
comments
print report bad tab
2 comments total.
0 reply
jxmxsc 129 Jan 19, 2007 11:30 AM

I've been looking for a good tab for this song for ages, n ur about the first who seems to have got the riff right. Well done!
Jxmxsc

0 reply
samxt21 10 Mar 18, 2007 02:08 AM

Hey yea man. I think you got it right on the dot. Awesome. I would look and i thought i wasn't playin right or somethin. Good Job!

guest
You may want to rate the tab now too:
select rating
Wanna post a correction for this tab? Suggest correction