Oops, an error
Loading. Please wait.

Over And Out Tab

version 5
version 5

Whole song

Interactive

3,870 views 6 this week
1 commentread comment
1 2 3 4 5
x 9
add to favorites
launch autoscroll
font size
0
reset
how to read this tab
guitar tuner
Autoscroll
slow
fast
+/-
esc
set tempo
stop
Help us to improve Ultimate-Guitar.com Take our survey!
×
Difficulty
novice
Foo Fighters - Over And Out

Album: In Your Honor
Instrument: Guitar
Tuning: EADGBe



I watched the Skin and Bones DVD a million times so I'm pretty sure the 
into & main riff are now 100% correct.  

The chords during the chorus are tricky since there are three guitars
playing simultaneously plus Shiflett is playing a 12 string.  So no matter
what variations of chords you play, it always feels like it's missing 
something.  I think this tab sounds pretty good for a single guitar.

Grohl finger picks the into / main riff, but I use a guitar pick.




  INTRO
[0:00]
e|-------------------------------------------|
B|-------------------------------------------|
G|---------0---------------------------------|
D|---------5---5---5----4\5----4----2p0---0--|
A|----2----------2----0------0----0----------|
E|--0---0-------------------------------0----|

e|---------------------------------------------|
B|---------------------------------------------|
G|---------0---------------------------2p0-----|
D|---------5---5---5----4\5----4----2p0---2p0--|
A|----2----------2----0------0----0------------|
E|--0---0--------------------------------------|

e|-------------------------------------------|
B|-------------------------------------------|
G|---------0------------------------------0--|
D|---------5---5---5----4\5----4----2p0------|
A|----2----------2----0------0----0----------|
E|--0---0-------------------------------0----|

e|---------------|
B|---------------|
G|---------------|
D|------0-----0--|
A|----2-----0----|
E|--3-----2------|



  VERSE
[0:18]
e|-------------------------------------------|
B|-------------------------------------------|
G|---------0---------------------------------|
D|---------5---5---5----4\5----4----2p0---0--|
A|----2----------2----0------0----0----------|
E|--0---0-------------------------------0----|
  Restless  little  one

e|---------------------------------------------|
B|---------------------------------------------|
G|---------0---------------------------2p0-----|
D|---------5---5---5----4\5----4----2p0---2p0--|
A|----2----------2----0------0----0------------|
E|--0---0--------------------------------------|
  comfortable   and       warm

e|-------------------------------------------|
B|-------------------------------------------|
G|---------0------------------------------0--|
D|---------5---5---5----4\5----4----2p0------|
A|----2----------2----0------0----0----------|
E|--0---0-------------------------------0----|
  let me    fall   apart                     

e|---------------|
B|---------------|
G|---------------|
D|------0-----0--|
A|----2-----0----|
E|--3-----2------|
crippled in your ar-


e|-------------------------------------------|
B|-------------------------------------------|
G|---------0---------------------------------|
D|---------5---5---5----4\5----4----2p0---0--|
A|----2----------2----0------0----0----------|
E|--0---0-------------------------------0----|
 -ms

e|---------------------------------------------|
B|---------------------------------------------|
G|---------0---------------------------2p0-----|
D|---------5---5---5----4\5----4----2p0---2p0--|
A|----2----------2----0------0----0------------|
E|--0---0--------------------------------------|

e|-------------------------------------------|
B|-------------------------------------------|
G|---------0---------------------------------|
D|---------5---5---5----4\5----4----2p0---0--|
A|----2----------2----0------0----0----------|
E|--0---0-------------------------------0----|
  chase me through the dark

e|---------------------------------------------|
B|---------------------------------------------|
G|---------0---------------------------2p0-----|
D|---------5---5---5----4\5----4----2p0---2p0--|
A|----2----------2----0------0----0------------|
E|--0---0--------------------------------------|
  ready     on your    mark


                                              PRE-CHORUS
[0:58]
e|----------------------------------------------------------|
B|----------------------------------------------------------|
G|---------0------------------------------0-----------------|
D|---------5---5---5----4\5----4----2p0-----------0-----0---|
A|----2----------2----0------0----0-------------2-----0-----|
E|--0---0-------------------------------0-----3-----2-------|
  first  to reach the stars                  wins a broken heart

e|----------------------|----------------------------------------|
B|----------------------|----------------------------------------|
G|----------0-----------|----------------------------0-----------|
D|----------5---5-----5-|-------0--------0-----------5---5-----5-|
A|----2------------2----|----2--------0--------2------------2----|
E|-0-----0--------------|-3--------2--------0-----0--------------|
                         one that broke apart

 

                                                 CHORUS
                       [1:16]
e|-------------------------------------------------------|
B|-------------------------------------------------------|
G|-------------------------------------------------------|
D|-------0--------0---4----4-4-4-4-4-4-4-4-4-4-4-4-4-4-4-|
A|----2--------0------2----2-2-2-2-2-2-2-2-2-2-2-2-2-2-2-|
E|-3--------2---------0----0-0-0-0-0-0-0-0-0-0-0-0-0-0-0-|
  shattered from the start                        are you

e|-0-0-0-0-0-0-0-0-0-0-0-0-0-0-0-0-0-0-0-0-0-0-|
B|-2-2-2-2-2-2-2-2-2-2-2-2-2-2-2-2-2-2-2-2-2-2-|
G|-0-0-0-0-0-0-0-0-0-0-0-0-0-0-0-0-0-0-0-0-0-0-|
D|-2-2-2-2-2-2-2-2-2-2-2-2-2-2-2-2-2-2-2-2-2-2-|
A|-0-0-0-0-0-0-0-0-0-0-0-0-0-0-0-0-0-0-0-0-0-0-|
E|---------------------------------------------|
  there?                                 do you

e|-3-3-3-3-3-3-3-3-3-3-3-3-3-3-3-3-3-3-3-3-3-3-|
B|-3-3-3-3-3-3-3-3-3-3-3-3-3-3-3-3-3-3-3-3-3-3-|
G|-0-0-0-0-0-0-0-0-0-0-0-0-0-0-0-0-0-0-0-0-0-0-|
D|-0-0-0-0-0-0-0-0-0-0-0-0-0-0-0-0-0-0-0-0-0-0-|
A|-x-x-x-x-x-x-x-x-x-x-x-x-x-x-x-x-x-x-x-x-x-x-|
E|-3-3-3-3-3-3-3-3-3-3-3-3-3-3-3-3-3-3-3-3-3-3-|
  read me?                                are you

e|-0-0-0-0-0-0-0-0-0-0-0-0-0-0-0-0-0-0-0-0-0-0-|
B|-2-2-2-2-2-2-2-2-2-2-2-2-2-2-2-2-2-2-2-2-2-2-|
G|-0-0-0-0-0-0-0-0-0-0-0-0-0-0-0-0-0-0-0-0-0-0-|
D|-2-2-2-2-2-2-2-2-2-2-2-2-2-2-2-2-2-2-2-2-2-2-|
A|-0-0-0-0-0-0-0-0-0-0-0-0-0-0-0-0-0-0-0-0-0-0-|
E|---------------------------------------------|
  there?                                  I don't

e|------------------|
B|------------------|
G|------------------|
D|-------0--------0-|
A|----2--------0----|
E|-3--------2-------|
  feel you anymore



  INTERLUDE
[1:39]
e|-------------------------------------------|
B|-------------------------------------------|
G|---------0---------------------------------|
D|---------5---5---5----4\5----4----2p0---0--|
A|----2----------2----0------0----0----------|
E|--0---0-------------------------------0----|

e|---------------------------------------------|
B|---------------------------------------------|
G|---------0---------------------------2p0-----|
D|---------5---5---5----4\5----4----2p0---2p0--|
A|----2----------2----0------0----0------------|
E|--0---0--------------------------------------|



  VERSE
[1:50]
e|-------------------------------------------|
B|-------------------------------------------|
G|---------0---------------------------------|
D|---------5---5---5----4\5----4----2p0---0--|
A|----2----------2----0------0----0----------|
E|--0---0-------------------------------0----|
  cages    and   alarms

e|---------------------------------------------|
B|---------------------------------------------|
G|---------0---------------------------2p0-----|
D|---------5---5---5----4\5----4----2p0---2p0--|
A|----2----------2----0------0----0------------|
E|--0---0--------------------------------------|
  keepin' us   from    harm

e|----------------------------------------------------------|
B|----------------------------------------------------------|
G|---------0------------------------------0-----------------|
D|---------5---5---5----4\5----4----2p0-----------0-----0---|
A|----2----------2----0------0----0-------------2-----0-----|
E|--0---0-------------------------------0-----3-----2-------|
  I will    be the   guard                    hope to rest upon

e|-------------------------------------------|
B|-------------------------------------------|
G|---------0---------------------------------|
D|---------5---5---5----4\5----4----2p0---0--|
A|----2----------2----0------0----0----------|
E|--0---0-------------------------------0----|

e|-------------------------------------------|
B|-------------------------------------------|
G|---------0---------------------------------|
D|---------5---5---5----4\5----4----2p0---0--|
A|----2----------2----0------0----0----------|
E|--0---0-------------------------------0----|
  could I be the one

e|---------------------------------------------|
B|---------------------------------------------|
G|---------0---------------------------2p0-----|
D|---------5---5---5----4\5----4----2p0---2p0--|
A|----2----------2----0------0----0------------|
E|--0---0--------------------------------------|
  to break a will so strong?



                                              PRE-CHORUS
                                               [2:30]
e|----------------------------------------------------------|
B|----------------------------------------------------------|
G|---------0------------------------------0-----------------|
D|---------5---5---5----4\5----4----2p0-----------0-----0---|
A|----2----------2----0------0----0-------------2-----0-----|
E|--0---0-------------------------------0-----3-----2-------|
  prey it won't be long                      'til your will is

e|----------------------|----------------------------------------|
B|----------------------|----------------------------------------|
G|----------0-----------|----------------------------0-----------|
D|----------5---5-----5-|-------0--------0-----------5---5-----5-|
A|----2------------2----|----2--------0--------2------------2----|
E|-0-----0--------------|-3--------2--------0-----0--------------|
  gone                   everything is done



                                                  CHORUS
                       [2:41]                               
e|-------------------------------------------------------|
B|-------------------------------------------------------|
G|-------------------------------------------------------|
D|-------0--------0---4----4-4-4-4-4-4-4-4-4-4-4-4-4-4-4-|
A|----2--------0------2----2-2-2-2-2-2-2-2-2-2-2-2-2-2-2-|
E|-3--------2---------0----0-0-0-0-0-0-0-0-0-0-0-0-0-0-0-|
  nothin' left  at   all                           are you

[2:46]
e|-0-0-0-0-0-0-0-0-0-0-0-0-0-0-0-0-0-0-0-0-0-0-|
B|-2-2-2-2-2-2-2-2-2-2-2-2-2-2-2-2-2-2-2-2-2-2-|
G|-0-0-0-0-0-0-0-0-0-0-0-0-0-0-0-0-0-0-0-0-0-0-|
D|-2-2-2-2-2-2-2-2-2-2-2-2-2-2-2-2-2-2-2-2-2-2-|
A|-0-0-0-0-0-0-0-0-0-0-0-0-0-0-0-0-0-0-0-0-0-0-|
E|---------------------------------------------|
  there?                                 do you

e|-3-3-3-3-3-3-3-3-3-3-3-3-3-3-3-3-3-3-3-3-3-3-|
B|-3-3-3-3-3-3-3-3-3-3-3-3-3-3-3-3-3-3-3-3-3-3-|
G|-0-0-0-0-0-0-0-0-0-0-0-0-0-0-0-0-0-0-0-0-0-0-|
D|-0-0-0-0-0-0-0-0-0-0-0-0-0-0-0-0-0-0-0-0-0-0-|
A|-x-x-x-x-x-x-x-x-x-x-x-x-x-x-x-x-x-x-x-x-x-x-|
E|-3-3-3-3-3-3-3-3-3-3-3-3-3-3-3-3-3-3-3-3-3-3-|
  read me?                               are you

e|-0-0-0-0-0-0-0-0-0-0-0-0-0-0-0-0-0-0-0-0-0-0-|
B|-2-2-2-2-2-2-2-2-2-2-2-2-2-2-2-2-2-2-2-2-2-2-|
G|-0-0-0-0-0-0-0-0-0-0-0-0-0-0-0-0-0-0-0-0-0-0-|
D|-2-2-2-2-2-2-2-2-2-2-2-2-2-2-2-2-2-2-2-2-2-2-|
A|-0-0-0-0-0-0-0-0-0-0-0-0-0-0-0-0-0-0-0-0-0-0-|
E|---------------------------------------------|
  there?                             I don't feel

e|-3-3-3-3-3-3-3-3-3-3-3-3-3-3-3-3-3-3-3-3-3-3-|
B|-3-3-3-3-3-3-3-3-3-3-3-3-3-3-3-3-3-3-3-3-3-3-|
G|-0-0-0-0-0-0-0-0-0-0-0-0-0-0-0-0-0-0-0-0-0-0-|
D|-0-0-0-0-0-0-0-0-0-0-0-0-0-0-0-0-0-0-0-0-0-0-|
A|-x-x-x-x-x-x-x-x-x-x-x-x-x-x-x-x-x-x-x-x-x-x-|
E|-3-3-3-3-3-3-3-3-3-3-3-3-3-3-3-3-3-3-3-3-3-3-|
  you anymore                           are you

e|-0-0-0-0-0-0-0-0-0-0-0-0-0-0-0-0-0-0-0-0-0-0-|
B|-2-2-2-2-2-2-2-2-2-2-2-2-2-2-2-2-2-2-2-2-2-2-|
G|-0-0-0-0-0-0-0-0-0-0-0-0-0-0-0-0-0-0-0-0-0-0-|
D|-2-2-2-2-2-2-2-2-2-2-2-2-2-2-2-2-2-2-2-2-2-2-|
A|-0-0-0-0-0-0-0-0-0-0-0-0-0-0-0-0-0-0-0-0-0-0-|
E|---------------------------------------------|
  there?                            will you gi-

e|-3-3-3-3-3-3-3-3-3-3-3-3-3-3-3-3-3-3-3-3-3-3-|
B|-3-3-3-3-3-3-3-3-3-3-3-3-3-3-3-3-3-3-3-3-3-3-|
G|-0-0-0-0-0-0-0-0-0-0-0-0-0-0-0-0-0-0-0-0-0-0-|
D|-0-0-0-0-0-0-0-0-0-0-0-0-0-0-0-0-0-0-0-0-0-0-|
A|-x-x-x-x-x-x-x-x-x-x-x-x-x-x-x-x-x-x-x-x-x-x-|
E|-3-3-3-3-3-3-3-3-3-3-3-3-3-3-3-3-3-3-3-3-3-3-|
  -ve in?                               are you

e|-0-0-0-0-0-0-0-0-0-0-0-0-0-0-0-0-0-0-0-0-0-0-|
B|-2-2-2-2-2-2-2-2-2-2-2-2-2-2-2-2-2-2-2-2-2-2-|
G|-0-0-0-0-0-0-0-0-0-0-0-0-0-0-0-0-0-0-0-0-0-0-|
D|-2-2-2-2-2-2-2-2-2-2-2-2-2-2-2-2-2-2-2-2-2-2-|
A|-0-0-0-0-0-0-0-0-0-0-0-0-0-0-0-0-0-0-0-0-0-0-|
E|---------------------------------------------|
  there?                                  if I



           BRIDGE

e|-3-3-3-3-3-3-3-3-0-0-0-0-0-0-0-0-0-0-0-0-0-0-0-0-|
B|-3-3-3-3-3-3-3-3-3-3-3-3-3-3-3-3-2-2-2-2-2-2-2-2-|
G|-0-0-0-0-0-0-0-0-0-0-0-0-0-0-0-0-0-0-0-0-0-0-0-0-|
D|-0-0-0-0-0-0-0-0-2-2-2-2-2-2-2-2-2-2-2-2-2-2-2-2-|
A|-x-x-x-x-x-x-x-x-2-2-2-2-2-2-2-2-0-0-0-0-0-0-0-0-|
E|-3-3-3-3-2-2-2-2---------------------------------|
  give     out

e|-0-0-0-0-0-0-0-0-0-0-0-0-0-0-0-0-|-0-0-0-0-0-0-0-0-0-0-0-0-0-0-0-0-|
B|-3-3-3-3-3-3-3-3-2-2-2-2-2-2-2-2-|-3-3-3-3-3-3-3-3-2-2-2-2-2-2-2-2-|
G|-0-0-0-0-0-0-0-0-0-0-0-0-0-0-0-0-|-0-0-0-0-0-0-0-0-0-0-0-0-0-0-0-0-|
D|-2-2-2-2-2-2-2-2-2-2-2-2-2-2-2-2-|-2-2-2-2-2-2-2-2-2-2-2-2-2-2-2-2-|
A|-2-2-2-2-2-2-2-2-0-0-0-0-0-0-0-0-|-2-2-2-2-2-2-2-2-0-0-0-0-0-0-0-0-|
E|---------------------------------|---------------------------------|
  ooh                      over and out                           ooh

e|-0-0-0-0-0-0-0-0-0-0-0-0-0-0-0-0-|-0-0-0-0-0-0-0-0-0-0-0-0-0-0-0-0-|
B|-3-3-3-3-3-3-3-3-2-2-2-2-2-2-2-2-|-3-3-3-3-3-3-3-3-2-2-2-2-2-2-2-2-|
G|-0-0-0-0-0-0-0-0-0-0-0-0-0-0-0-0-|-0-0-0-0-0-0-0-0-0-0-0-0-0-0-0-0-|
D|-2-2-2-2-2-2-2-2-2-2-2-2-2-2-2-2-|-2-2-2-2-2-2-2-2-2-2-2-2-2-2-2-2-|
A|-2-2-2-2-2-2-2-2-0-0-0-0-0-0-0-0-|-2-2-2-2-2-2-2-2-0-0-0-0-0-0-0-0-|
E|---------------------------------|---------------------------------|
  ooh                               cages and alarms

e|-0-0-0-0-0-0-0-0-0-0-0-0-0-0-0-0-|-0-0-0-0-0-0-0-0-0-0-0-0-0-0-0-0-|
B|-3-3-3-3-3-3-3-3-2-2-2-2-2-2-2-2-|-3-3-3-3-3-3-3-3-2-2-2-2-2-2-2-2-|
G|-0-0-0-0-0-0-0-0-0-0-0-0-0-0-0-0-|-0-0-0-0-0-0-0-0-0-0-0-0-0-0-0-0-|
D|-2-2-2-2-2-2-2-2-2-2-2-2-2-2-2-2-|-2-2-2-2-2-2-2-2-2-2-2-2-2-2-2-2-|
A|-2-2-2-2-2-2-2-2-0-0-0-0-0-0-0-0-|-2-2-2-2-2-2-2-2-0-0-0-0-0-0-0-0-|
E|---------------------------------|---------------------------------|
  keepin' us from harm              I will be the guard

e|-3-3-3-3-3-3-3-3-0-0-0-0-0-0-0-0-|-3-3-3-3-3-3-3-3-0-0-0-0-0-0-0-0-|
B|-3-3-3-3-3-3-3-3-3-3-3-3-3-3-3-3-|-3-3-3-3-3-3-3-3-3-3-3-3-3-3-3-3-|
G|-0-0-0-0-0-0-0-0-0-0-0-0-0-0-0-0-|-0-0-0-0-0-0-0-0-0-0-0-0-0-0-0-0-|
D|-0-0-0-0-0-0-0-0-2-2-2-2-2-2-2-2-|-0-0-0-0-0-0-0-0-2-2-2-2-2-2-2-2-|
A|-x-x-x-x-x-x-x-x-2-2-2-2-2-2-2-2-|-x-x-x-x-x-x-x-x-2-2-2-2-2-2-2-2-|
E|-3-3-3-3-2-2-2-2-----------------|-3-3-3-3-2-2-2-2-----------------|
  hope to rest upon                 Ev'rythin' is done



                                               CHORUS
                   [4:15]
e|-3-3-3-3-3-3-3-3------------------------------------|
B|-3-3-3-3-3-3-3-3------------------------------------|
G|-0-0-0-0-0-0-0-0------------------------------------|
D|-0-0-0-0-0-0-0-0-4----4-4-4-4-4-4-4-4-4-4-4-4-4-4-4-|
A|-x-x-x-x-x-x-x-x-2----2-2-2-2-2-2-2-2-2-2-2-2-2-2-2-|
E|-3-3-3-3-2-2-2-2-0----0-0-0-0-0-0-0-0-0-0-0-0-0-0-0-|
  nothin'  left  at   all                     are you

e|-0-0-0-0-0-0-0-0-0-0-0-0-0-0-0-0-0-0-0-0-0-0-|
B|-2-2-2-2-2-2-2-2-2-2-2-2-2-2-2-2-2-2-2-2-2-2-|
G|-0-0-0-0-0-0-0-0-0-0-0-0-0-0-0-0-0-0-0-0-0-0-|
D|-2-2-2-2-2-2-2-2-2-2-2-2-2-2-2-2-2-2-2-2-2-2-|
A|-0-0-0-0-0-0-0-0-0-0-0-0-0-0-0-0-0-0-0-0-0-0-|
E|---------------------------------------------|
  there?                                 do you

e|-3-3-3-3-3-3-3-3-3-3-3-3-3-3-3-3-3-3-3-3-3-3-|
B|-3-3-3-3-3-3-3-3-3-3-3-3-3-3-3-3-3-3-3-3-3-3-|
G|-0-0-0-0-0-0-0-0-0-0-0-0-0-0-0-0-0-0-0-0-0-0-|
D|-0-0-0-0-0-0-0-0-0-0-0-0-0-0-0-0-0-0-0-0-0-0-|
A|-x-x-x-x-x-x-x-x-x-x-x-x-x-x-x-x-x-x-x-x-x-x-|
E|-3-3-3-3-3-3-3-3-3-3-3-3-3-3-3-3-3-3-3-3-3-3-|
  read me?                              are you

e|-0-0-0-0-0-0-0-0-0-0-0-0-0-0-0-0-0-0-0-0-0-0-|
B|-2-2-2-2-2-2-2-2-2-2-2-2-2-2-2-2-2-2-2-2-2-2-|
G|-0-0-0-0-0-0-0-0-0-0-0-0-0-0-0-0-0-0-0-0-0-0-|
D|-2-2-2-2-2-2-2-2-2-2-2-2-2-2-2-2-2-2-2-2-2-2-|
A|-0-0-0-0-0-0-0-0-0-0-0-0-0-0-0-0-0-0-0-0-0-0-|
E|---------------------------------------------|
  there?                           I don't feel

e|-3-3-3-3-3-3-3-3-3-3-3-3-3-3-3-3-3-3-3-3-3-3-|
B|-3-3-3-3-3-3-3-3-3-3-3-3-3-3-3-3-3-3-3-3-3-3-|
G|-0-0-0-0-0-0-0-0-0-0-0-0-0-0-0-0-0-0-0-0-0-0-|
D|-0-0-0-0-0-0-0-0-0-0-0-0-0-0-0-0-0-0-0-0-0-0-|
A|-x-x-x-x-x-x-x-x-x-x-x-x-x-x-x-x-x-x-x-x-x-x-|
E|-3-3-3-3-3-3-3-3-3-3-3-3-3-3-3-3-3-3-3-3-3-3-|
  you anymore                           are you

e|-0-0-0-0-0-0-0-0-0-0-0-0-0-0-0-0-0-0-0-0-0-0-|
B|-2-2-2-2-2-2-2-2-2-2-2-2-2-2-2-2-2-2-2-2-2-2-|
G|-0-0-0-0-0-0-0-0-0-0-0-0-0-0-0-0-0-0-0-0-0-0-|
D|-2-2-2-2-2-2-2-2-2-2-2-2-2-2-2-2-2-2-2-2-2-2-|
A|-0-0-0-0-0-0-0-0-0-0-0-0-0-0-0-0-0-0-0-0-0-0-|
E|---------------------------------------------|
  there?                               will you

e|-3-3-3-3-3-3-3-3-3-3-3-3-3-3-3-3-3-3-3-3-3-3-|
B|-3-3-3-3-3-3-3-3-3-3-3-3-3-3-3-3-3-3-3-3-3-3-|
G|-0-0-0-0-0-0-0-0-0-0-0-0-0-0-0-0-0-0-0-0-0-0-|
D|-0-0-0-0-0-0-0-0-0-0-0-0-0-0-0-0-0-0-0-0-0-0-|
A|-x-x-x-x-x-x-x-x-x-x-x-x-x-x-x-x-x-x-x-x-x-x-|
E|-3-3-3-3-3-3-3-3-3-3-3-3-3-3-3-3-3-3-3-3-3-3-|
  give in?                              are you

e|-0-0-0-0-0-0-0-0-0-0-0-0-0-0-0-0-0-0-0-0-0-0-|
B|-2-2-2-2-2-2-2-2-2-2-2-2-2-2-2-2-2-2-2-2-2-2-|
G|-0-0-0-0-0-0-0-0-0-0-0-0-0-0-0-0-0-0-0-0-0-0-|
D|-2-2-2-2-2-2-2-2-2-2-2-2-2-2-2-2-2-2-2-2-2-2-|
A|-0-0-0-0-0-0-0-0-0-0-0-0-0-0-0-0-0-0-0-0-0-0-|
E|---------------------------------------------|
  there?                                  if I

e|-------------------|
B|-------------------|
G|-------------------|
D|-------0--------0--|
A|----2--------0-----|
E|-3--------2--------|
  give      out



  OUTRO

e|-------------------------------------------|
B|-------------------------------------------|
G|---------0---------------------------------|
D|---------5---5---5----4\5----4----2p0---0--|
A|----2----------2----0------0----0----------|
E|--0---0-------------------------------0----|

e|----------------------------------------------|
B|----------------------------------------------|
G|---------0---------------------------2p0------|
D|---------5---5---5----4\5----4----2p0---2p0---|
A|----2----------2----0------0----0-------------|
E|--0---0-------------------------------------0-|
Suggest correction
comments
print report bad tab
1 comment total.
0 reply
andreskyrory 10 May 01, 2014 03:03 AM

This is a great tab! Thank you!

guest
You may want to rate the tab now too:
select rating
Wanna post a correction for this tab? Suggest correction