Oops, an error
Loading. Please wait.

Pretender Bass Tab

version 1
version 1

Whole song

251,475 views 285 this week
34 commentsread comments
1 2 3 4 5
excellent!
x 80
add to favorites
launch autoscroll
font size
0
reset
guitar tuner
Autoscroll
slow
fast
+/-
esc
set tempo
stop
Help us to improve Ultimate-Guitar.com Take our survey!
×
Author
Foo Fighters - The Pretender

Album: 2007 - Echoes, Silence, Patience & Grace
Instrument: Bass
Tuning: EBGD

[Intro]
Rest until 00:35

[Verse]
G|-----------------|-----------------|------------------|-----------------|
D|-----------------|-----------------|------------------|-----------------|
A|0-0----0-0-0-0---|0-0----0-0-0-0---|------------------|-----------------|
E|-----------------|-----------------|2-2----2-2-2-2----|1-1----1-1-1-1---|

G|-----------------|-----------------|------------------|--------------------|
D|-----------------|-----------------|------------------|--------------------|
A|0-0----0-0-0-0---|0-0----0-0-0-0---|------------------|--------------------|
E|-----------------|-----------------|2-2----2-2-2-2----|1-1--1-1-1-1-1-0-3-0|

G|-----------------|-----------------|-------------------|-----------------|
D|-----------------|-----------------|7\-----------------|-----------------|
A|0-0----0-0-0-0---|0-0----0-0-0-0---|-------------------|-----------------|
E|-----------------|-----------------|--2-2--2-2-2-2-3252|1-1--1-1-1-1-1030|

G|-------------------------------|-------------------------------|-------------------------------||
D|-------------------------------|-------------------------------|-------------------------------||
A|-0-0-0-0-0-0-0-0-0-0-0-0-0-0-0-|-0-0-0-0-0-0-0-0-0-0-0-0-0-0-0-|-------------------------------||
E|-------------------------------|-------------------------------|-2-2-2-2-2-2-2-2-2-2-2-2-2-2-2-||

G|--------------------------------------|
D|--------------------------------------|
A|--------------------------------------|
E|1-1-1-1-1-1-1-1-1-1-1-1-1-1-1--1-0-3-0|


[Pre-Chorus]
G|-------------------|
D|----------------5h7|
A|5--5-5-5--5-5-5----|
E|-------------------|


[Chorus]
G|--------------------|-----------------------|------------------------|-------------------------|
D|--------------------|-----------------------|------------------------|----3-------------3------|
A|0--0-0-0-0-0-0-0-0--|0-2-2-2-3-3-3-0-0-0----|------------------------|-------------------------|
E|--------------------|--------------------2--|2-2-2-2-2-2-2-2-2-2-----|1111-1-1-1-1-1-1-1-1-1-1-|

G|-------------------|-----------------------|------------------------|-----------------------|
D|-------------------|-----------------------|------------------------|-----------------------|
A|0--0-0-0-0-0-0--0--|0-2-2-2-3-3-3-0-0-0----|------------------------|-----------------------|
E|---------------3-3-|--------------------2--|2-2-2-2-2-2-2-2-2-2-----|11-1-1-1-1-1-1-1-1-1-5\|


[Verse]
G|-----------------|-----------------|--------------------|--------------------|
D|7\---------------|-----------------|--------------------|--------------------|
A|--0-0--0-0-0-0---|0-0--0-0-0-0-----|--------------------|--------------------|
E|-----------------|-----------------|2-2--2-2-2-2-3-2-5-2|1-1--1-1-1-1-1-0-3-0|

G|-----------------|-----------------|-----------------|-------------------|
D|-----------------|-----------------|-----------------|-------------------|
A|0000000000000000-|0000000000000000-|-----------------|-------------------|
E|-----------------|-----------------|2222222222222222-|111111111111-1-0-3-|


[Pre-Chorus]
G|-----------------|
D|--------------5h7|
A|5--5-55--55-5----|
E|-----------------|


[Chorus]
G|-----------------|-----------------|-----------------|-----------------|
D|-----------------|-----------------|-----------------|----3-------3----|
A|0--00-0-0-00-00--|0-222-333-000----|-----------------|-----------------|
E|-----------------|--------------2--|2-2-22222222-----|1111-1111111-111-|

G|-----------------|-----------------|-----------------|--------------------|
D|-----------------|-----------------|-----------------|--------------------|
A|0--00-0-0-00--0--|0-222-333-000----|-----------------|--------------------|
E|-------------3-3-|--------------2--|2-2-22222222-----|11-1-11-1-11-1-11-0-|


Pre-Verse 2:
G|----------------------|
D|----------------------|
A|----------------------|
E|0000-1111-2222-3333---|


[Verse]
Rest x2
G|-----------------|-----------------|-----------------|-----------------|
D|-----------------|-----------------|-----------------|-----------------|
A|----0-------0----|----0-------0----|----0-------0----|----0-------0----|
E|-----------------|-----------------|-----------------|-----------------|
  1 + 2 + 3 + 4 +...

G|-----------------|-----------------|-----------------|-----------------|
D|-----------------|-----------------|-----------------|-----------------|
A|0000000000000000-|0000000000000000-|0000000000000000-|0000000000000000-|
E|-----------------|-----------------|-----------------|-----------------|

G|-----------------|-----------------|------------------|--------------------|
D|----7-------7----|----7-------7----|--55-77----55-77--|----010-------010---|
A|0000-0000000-000-|0000-0000000-000-|00-----0000-----00|00-3---3-000-3---3-0|
E|-----------------|-----------------|------------------|--------------------|


[Intro]
Rest until 3:28


[Chorus]
G|-----------------|-----------------|-----------------|-----------------|
D|-----------------|-----------------|-----------------|----3-------3----|
A|0--00-0-0-00-00--|0-222-333-000----|-----------------|-----------------|
E|-----------------|--------------2--|2-2-22222222-----|1111-1111111-111-|

G|-----------------|-----------------|-----------------|--------------------|
D|-----------------|-----------------|-----------------|--------------------|
A|0--00-0-0-00-000-|0-222-333-000----|-----------------|--------------------|
E|-----------------|--------------2--|2-2-22222222-----|11-1-11-1-11-1-11-1-|

G|-----------------|-----------------|-----------------|-----------------|
D|-----------------|-----------------|-----------------|----3-------3----|
A|0--00-0-0-00-00--|0-222-333-000----|-----------------|-----------------|
E|-----------------|--------------2--|2-2-22222222-----|1111-1111111-111-|

G|-----------------|-----------------|-----------------|--------------------|
D|-----------------|-----------------|-----------------|--------------------|
A|0--00-0-0-00-000-|0-222-333-000----|-----------------|--------------------|
E|-----------------|--------------2--|2-2-22222222-----|11-1-11-1-11-1-11-1-|


[Pre-Verse 2:]
G|----------------------|
D|----------------------|
A|----------------------|
E|0000-1111-2222-3333---|


[Outro]
G|-----------------|-----------------|----------------------------------|
D|----7-------7----|----7-------7----|----010-------010-----------------|
A|0000-0000000-000-|0000-0000000-000-|00-3---3-000-3---3-0-00------0000-|
E|-----------------|-----------------|----------------------------------|



************************************

| h  Hammer-on
| \  Slide down

************************************
Suggest correction
What's this?
You can suggest a correction to this tab. Community and Mods will review your correction and vote to approve or reject it.
comments
print report bad tab
34 comments total. Showing first comments. show 1 bad comment
+9 reply
sldfghtrike 73 wrote on August 24 2007, 10:57 pm

hey dude, give credit where its due, this is the same tab from fftabs.com, on that site it says that it was tabbed by hewhoknowsall

+7 reply
Jasper7979 115 wrote on August 28 2007, 12:51 pm

Word @ sldfghtrike - Stolen from http://www.fftabs.com/tabs_bass/2007/ThePretender.txt

guest
You may want to rate the tab now too:
select rating
Please do not post tabs as comments. Select "correction" instead!