Oops, an error
Loading. Please wait.

Pretender Tab

version 2
version 2
1,182,349 views 1,857 this week
97 commentsread comments
1 2 3 4 5
excellent!
x 421
add to favorites
launch autoscroll
font size
0
reset
how to read this tab
guitar tuner
Tab Pro tools
  • play this tab
  • loop segment
  • change instrument
  • show fretboard
  • metronome
Autoscroll
slow
fast
+/-
esc
set tempo
stop
Contributor
Difficulty
Tabbers playing skills
intermediate
intermediate ++
Transcribed by Daniel Drumm, www.soundcloud.com/danieldrumm, www.danieldrumm.com



Chris Shifflet - Lead Guitar

     E   E  E   E  E   E  E   E     E  E   E  E   E  E   E  E
E||----------------7-------------|---------0------0------0-----|
B||------------10-----10---------|--------10-----10-----10-----|
G||---------9-------------9------|---------9------9------9-----|
D||-----10-------------------10--|--------10-----10-----10-----|
A||--0---------------------------|--0----------------0------9--|
E||------------------------------|-----7------8----------------|


    E    E  E   Q    E   E  E     E   E  E   E  E   E  E   E
-------------------------------|----------------0-------------|
---------------10--------------|------------10-----10---------|
------------9------------------|---------9-------------9------|
--(10)--10---------------------|-----10-------------------10--| x3
---------------------9b--9--8--|--L---------------------------|
-------------------------------|------------------------------|

on the 3rd time let the last 0 ring amnd play nothing else (when the snare starts)


  S S S S S S S S S S S S S S S S
--0-0-2-0-3-0-5-0-0-0-2-0-3-0-5-0-|
--5-5-5-5-5-5-5-5-5-5-5-5-5-5-5-5-|
----------------------------------| x27
----------------------------------|
----------------------------------|
----------------------------------|

one time of the above riff then...

  S S S S S S S S S S S S S S S S
--0-0---------0-0-0-0-------------|
--1-1---------1-1-1-1-------------|
--2-2---------2-2-2-2-------------|
--2-2---------2-2-2-2-------------|
--0-0---------0-0-0-0-------------|
----------------------------------|


  S S S S S S S S S S S S S S S S
--0-0---------0-0-0-0-------------|
--1-1---------1-1-1-1-------------|
--2-2---------2-2-2-2-------------|
--2-2---------2-2-2-2-------------|
--0-0---------0-0-0-0-------------|
----------------------------------|


  S S S S S S S S S S S S S S S S
----------------------------------|
--3-3---------3-3-3-3-------------|
--2-2---------2-2-2-2-------------|
--0-0---------0-0-0-0-------------|
--0-0---------0-0-0-0-------------|
--2-2---------2-2-2-2-------------|


  S S S S S S S S S S S S S S S S
----------------------------------|
--1-1---------1-1-1-1-------------|
--0-0---------0-0-0-0-------------|
--3-3---------3-3-3-3-------------|
--3-3---------3-3-3-3-------------|
----------------------------------|


  S S S S S S S S S S S S S S S S
--0-0---------0-0-0-0-------------|
--1-1---------1-1-1-1-------------|
--2-2---------2-2-2-2-------------|
--2-2---------2-2-2-2-------------|
--0-0---------0-0-0-0-------------|
----------------------------------|


  S S S S S S S S S S S S S S S S
--0-0---------0-0-0-0-------------|
--1-1---------1-1-1-1-------------|
--2-2---------2-2-2-2-------------|
--2-2---------2-2-2-2-------------|
--0-0---------0-0-0-0-------------|
----------------------------------|


  S S S S S S S S S S S S S S S S
----------------------------------|
--3-3---------3-3-3-3-------------|
--2-2---------2-2-2-2-------------|
--0-0---------0-0-0-0-------------|
--0-0---------0-0-0-0-------------|
--2-2---------2-2-2-2-------------|


  S S S S S S S S S S S S S S E
---------------------------------|
--1-1---------1-1-1-1------------|
--0-0---------0-0-0-0------------|
--3-3---------3-3-3-3------------|
--3-3---------3-3-3-3------------|
--------------------------1-0-3--|


  S S S S S S S S S S S S S S S S
--0-0---------0-0-0-0-------------|
--1-1---------1-1-1-1-------------|
--2-2---------2-2-2-2-------------|
--2-2---------2-2-2-2-------------|
--0-0---------0-0-0-0-------------|
----------------------------------|


  S S S S S S S S S S S S S S S S
--0-0---------0-0-0-0-------------|
--1-1---------1-1-1-1-------------|
--2-2---------2-2-2-2-------------|
--2-2---------2-2-2-2-------------|
--0-0---------0-0-0-0-------------|
----------------------------------|


  S S S S S S S S S S S S S S S S
----------------------------------|
--3-3---------3-3-3-3-------------|
--2-2---------2-2-2-2-------------|
--0-0---------0-0-0-0-------------|
--0-0---------0-0-0-0-------------|
--2-2---------2-2-2-2-------------|


  S S S S S S S S S S S S S S E
---------------------------------|
--1-1---------1-1-1-1------------|
--0-0---------0-0-0-0------------|
--3-3---------3-3-3-3------------|
--3-3---------3-3-3-3------------|
--------------------------1-0-3--|


      PM PM PM PM         PM PM PM PM PM PM
  S S S  S  S  S  S S S S S  S  S  S  S  S
--0-0-------------0-0-0-0-------------------|
--1-1-------------1-1-1-1-------------------|
--2-2-2--2--2--2--2-2-2-2-2--2--2--2--2--2--|
--2-2-2--2--2--2--2-2-2-2-2--2--2--2--2--2--|
--0-0-0--0--0--0--0-0-0-0-0--0--0--0--0--0--|
--------------------------------------------|


      PM PM PM PM         PM PM PM PM PM PM
  S S S  S  S  S  S S S S S  S  S  S  S  S
--0-0-------------0-0-0-0-------------------|
--1-1-------------1-1-1-1-------------------|
--2-2-2--2--2--2--2-2-2-2-2--2--2--2--2--2--|
--2-2-2--2--2--2--2-2-2-2-2--2--2--2--2--2--|
--0-0-0--0--0--0--0-0-0-0-0--0--0--0--0--0--|
--------------------------------------------|


      PM PM PM PM         PM PM PM PM PM PM
  S S S  S  S  S  S S S S S  S  S  S  S  S
--------------------------------------------|
--3-3-------------3-3-3-3-------------------|
--2-2-------------2-2-2-2-------------------|
--0-0-------------0-0-0-0-------------------|
--0-0-------------0-0-0-0-------------------|
--2-2-2--2--2--2--2-2-2-2-2--2--2--2--2--2--|


      PM PM PM PM         PM PM PM PM PM PM
  S S S  S  S  S  S S S S S  S  S  S  S  S
--------------------------------------------|
--1-1-------------1-1-1-1-------------------|
--0-0-------------0-0-0-0-------------------|
--3-3-------------3-3-3-3-------------------|
--3-3-3--3--3--3--3-3-3-3-3--3--3--3--3--3--|
------1--1--1--1----------1--1--1--1--1--1--|


  S S S S S S S S S S S S S S S S
----------------------------------|
--3-3-3-3-3-3-3-3-3-3-3-3-3-3-3-3-|
--2-2-2-2-2-2-2-2-2-2-2-2-2-2-2-2-|
--0-0-0-0-0-0-0-0-0-0-0-0-0-0-0-0-|
--0-0-0-0-0-0-0-0-0-0-0-0-0-0-0-0-|
--2-2-2-2-2-2-2-2-2-2-2-2-2-2-2-2-|

   S S S S S S S S  S  S  S  S  S  S  S  S
|------------------------------------------|
|------------------------------------------|
|--7-7-7-7-9-9-9-9-11-11-11-11-12-12-12-12-| Shifflet over this last bit.
|--x-x-x-x-x-x-x-x--x--x--x--x--x--x--x--x-| This is also repeated over the
|--5-5-5-5-7-7-7-7--9--9--9--9-10-10-10-10-| bit between the 2nd chorus and
|------------------------------------------| the bridge

Shifflet Chorus

   S  S  S  S  S  S  S  S  S  S  S  S  S  S
---0--0--0--0--0--0--0--0--0--0--0--0--0--0---|
--10-10-10-10-10-10-10-10-10-10-10-10-10-10-1-|
---9--9--9--9--9--9--9--9--9--9--9--9--9--9---|
--10-10-10-10-10-10-10-10-10-10-10-10-10-10-1-|
----------------------------------------------|
----------------------------------------------|


   S  S  S  S  S  S  S  S  S  S  S  S  S  S
---0--0--0--0--0--0--0--0--0--0--0--0--0--0---|
--10-10-10-10-10-10-10-10-10-10-10-10-10-10-1-|
---9--9--9--9--9--9--9--9--9--9--9--9--9--9---|
--10-10-10-10-10-10-10-10-10-10-10-10-10-10-1-|
---0--0--x--x--x--x--x--x--x--x--0--0--0--0---|
---------7--7--7--7--8--8--8--8---------------|


  E   S  S  S  S  S  S  S  S  S  S  S  S  S
--L---0--0--0--0--0--0--0--0--0--0--0--0--0---|
--L--10-10-10-10-10-10-10-10-10-10-10-10-10-1-|
--L---9--9--9--9--9--9--9--9--9--9--9--9--9---|
--L--10-10-10-10-10-10-10-10-10-10-10-10-10-1-|
--L---9--9--9--9--9--9--9--9--9--9--9--9--9---|
----------------------------------------------|


   S  S  S  S  S  S  S  S  S  S  S  S  S  S
---0--0--0--0--0--0--0--0--0--0--0--0--0--0---|
--10-10-10-10-10-10-10-10-10-10-10-10-10-10-1-|
---9--9--9--9--9--9--9--9--9--9--9--9--9--9---|
--10-10-10-10-10-10-10-10-10-10-10-10-10-10-1-|
---8--8--8--8--8--8--8--8--8--8--8--8--8--8---|
----------------------------------------------|


Grohl Chorus

  S S S S S S S S S S S S S S S S
--0-0-0-0-0-0-0-0-0-0-0-0-0-0-0-0-|
--1-1-1-1-1-1-1-1-1-1-1-1-1-1-1-1-|
--2-2-2-2-2-2-2-2-2-2-2-2-2-2-2-2-|
--2-2-2-2-2-2-2-2-2-2-2-2-2-2-2-2-|
--0-0-0-0-0-0-0-0-0-0-0-0-0-0-0-0-|
----------------------------------|


  S S S S S S S S S S S S S S E
--0-0-0-0-0-0-0-0-0-0-0-0-0-0----|
--1-1-1-1-1-1-1-1-1-1-1-1-1-1-3--|
--2-2-2-2-2-2-2-2-2-2-2-2-2-2-2--|
--2-2-2-2-2-2-2-2-2-2-2-2-2-2-0--|
--0-0-0-0-0-0-0-0-0-0-0-0-0-0-0--|
------------------------------2--|


  E  S S S S S S S S S S S S S S
---------------------------------|
--L--3-3-3-3-3-3-3-3-3-3-3-3-3-3-|
--L--2-2-2-2-2-2-2-2-2-2-2-2-2-2-|
--L--0-0-0-0-0-0-0-0-0-0-0-0-0-0-|
--L--0-0-0-0-0-0-0-0-0-0-0-0-0-0-|
--L--2-2-2-2-2-2-2-2-2-2-2-2-2-2-|


  S S S S S S S S S S S S S S S S
----------------------------------|
--1-1-1-1-1-1-1-1-1-1-1-1-1-1-1-1-|
--0-0-0-0-0-0-0-0-0-0-0-0-0-0-0-0-|
--3-3-3-3-3-3-3-3-3-3-3-3-3-3-3-3-|
--3-3-3-3-3-3-3-3-3-3-3-3-3-3-3-3-|
----------------------------------|

Shifflet

  S S S S S S S E  S S S S S E
--------------------------------|
--------------------------------|
--------------------------------|
--2-2-4---5---7-2--2-4---5---4--|
--0-0-0-0-0-0-0-0--0-0-0-0-0-0--|
--------------------------------|


Then same as beggining section but half the umber before going into the PMed bits.


Chorus agen but afor mentioned link bit between the end and the bridge

Shifflet

  S S S S S S S E  S S S S S E     S S S S S S S E  S S S S S E
--------------------------------|--------------------------------|
--------------------------------|--------------------------------|
--------------------------------|--------------------------------|
--2-2-4---5---7-2--2-4---5---4--|--2-2-4---5---7-2--2-4---5---4--|
--0-0-0-0-0-0-0-0--0-0-0-0-0-0--|--0-0-0-0-0-0-0-0--0-0-0-0-0-0--|
--------------------------------|--------------------------------|


  S S S S S S S E  S S S S S E      S  S S S S S S  E   S S S S S S  S
--------------------------------|--------------------------------------|
--------------------------------|--------------------------------------|
--------------------------------|--------------------------------------|
--2-2-4---5---7-2--2-4---5---4--|--10-10-9---7-5---10--10-9---7-5---10-|
--0-0-0-0-0-0-0-0--0-0-0-0-0-0--|---0--0-0-0-0-0-0--0---0-0-0-0-0-0--0-|
--------------------------------|--------------------------------------|


 S  S S S S S S  E   S S S S S S  S
--------------------------------------|
--------------------------------------|
--------------------------------------|
--10-10-9---7-5---10--10-9---7-5---10-|
---0--0-0-0-0-0-0--0---0-0-0-0-0-0--0-|
--------------------------------------|


  S  S  S S S  S S  E   S  S S S  S S  S
-----------------------------------------|
-----------------------------------------|
-----------------------------------------|
--L-12-10---9-10---12--12-10---9-10---12-|
--0--0--0-0-0--0-0--0---0--0-0-0--0-0--0-|
-----------------------------------------|

                                             TP         TP
  S  S  S S S  S S  E   S  S S S  S S  S     H          H
-----------------------------------------|------------------------|
-----------------------------------------|------------------------|
-----------------------------------------|------------------------|
--L-12-10---9-10---12--12-10---9-10---12-|--13b--------13b--------|
--0--0--0-0-0--0-0--0---0--0-0-0--0-0--0-|---0----------0---------|
-----------------------------------------|------------------------|


   TP         TP
   H          H            S S S S S S S E  S S S S S E
------------------------|--------------------------------|
------------------------|--------------------------------|
------------------------|--------------------------------|
--13b--------13b--------|--2-2-4---5---7-2--2-4---5---4--|
---0----------0---------|--0-0-0-0-0-0-0-0--0-0-0-0-0-0--|
------------------------|--------------------------------|

Grohl Just strums the open A chord with a flager once at the start of every bar until
13b (TPH) which is played by grohl and shifflet plays the following

  E.    E    E   S  E.    E    E.      E.    E    E   S  E.    E    E.
------------------------------------|------------------------------------|
--------8~--10~-----------8~--10~---|--------8~--10~-----------8~--10~---|
--7b~------------7~-7b~-------------|--7b~------------7~-7b~-------------|x2
------------------------------------|------------------------------------|
------------------------------------|------------------------------------|
------------------------------------|------------------------------------|

     E   E  E   E  E   E  E   E     E  E   E  E   E  E   E  E
E||----------------7-------------|---------0------0------0-----|
B||------------10-----10---------|--------10-----10-----10-----|
G||---------9-------------9------|---------9------9------9-----|
D||-----10-------------------10--|--------10-----10-----10-----|
A||--0---------------------------|--0----------------0------9--|
E||------------------------------|-----7------8----------------|


    E    E  E   Q    E   E  E     E   E  E   E  E   E  E   E
-------------------------------|----------------0-------------|
---------------10--------------|------------10-----10---------|
------------9------------------|---------9-------------9------|
--(10)--10---------------------|-----10-------------------10--|
---------------------9b--9--8--|--L---------------------------|
-------------------------------|------------------------------|

chorus again x2

the second time round of the chorus shifflet changes to this lead. This is how it would 
done live with 2 guitars. On the recording the origonal riff would continue while this 
on top of it.

  S S S S S S S S S S S S S S S S
----------------------------------|
----------------------------------|
--9-9-9-9-9-9-9-9-9-9-9-9-9-9-9-9-|
--x-x-x-x-x-x-x-x-x-x-x-x-x-x-x-x-|
--7-7-7-7-7-7-7-7-7-7-7-7-7-7-7-7-|
----------------------------------|


  S S  S  S  S  S  S  S  S  S S S S S  E
------------------------------------------|
------------------------------------------|
--9-9-11-11-11-11-12-12-12-12-9-9-9-9-11--|
--x-x--x--x--x--x--x--x--x--x-x-x-x-x--x--|
--7-7--9--9--9--9-10-10-10-10-7-7-7-7--9--|
------------------------------------------|

  E   S  S  S  S  S  S  S  S  S  S  S  S  S
----------------------------------------------|
----------------------------------------------|
--L--11-11-11-11-11-11-11-11--9--9-11-11-12-1-|
------x--x--x--x--x--x--x--x--x--x--x--x--x---|
--L---9--9--9--9--9--9--9--9--7--7--9--9-10-1-|
----------------------------------------------|


   S  S  S  S  S  S  S  S  S  S  S  S  S  S
----------------------------------------------|
----------------------------------------------|
--12-12-12-12-12-12-12-12-12-12-12-12-12-12-1-|
---x--x--x--x--x--x--x--x--x--x--x--x--x--x---|
--10-10-10-10-10-10-10-10-10-10-10-10-10-10-1-|
----------------------------------------------|

The link section again


Grohl plays this on the outro

  S S S S S S S S S S S S S S S S
----------------------------------|
----------------------------------|
----------------------------------| x3
--7-7-7-7-7-7-7-7-7-7-7-7-7-7-7-7-|
--7-7-7-7-7-7-7-7-7-7-7-7-7-7-7-7-|
--5-5-5-5-5-5-5-5-5-5-5-5-5-5-5-5-|

  S S S S S S S S S S S S S S S S
----------------------------------||
----------------------------------||
----------------------------------||
--7-7---------7-7-7-7-------------||
--7-7---------7-7-7-7-------------||
--5-5---------5-5-5-5-------------||

 and shifflet plays this

S S S S S S S E  S S S S S E
--------------------------------|
--------------------------------|
--------------------------------|
--2-2-4---5---7-2--2-4---5---4--|
--0-0-0-0-0-0-0-0--0-0-0-0-0-0--|
--------------------------------|


  S S S S S S S E  S S S S S E      S  S S S S S S  E   S S S S S E
--------------------------------|------------------------------------|
--------------------------------|------------------------------------|
--------------------------------|------------------------------------|
--2-2-4---5---7-2--2-4---5---4--|--10-10-9---7-5---10--10-9---7-5----|
--0-0-0-0-0-0-0-0--0-0-0-0-0-0--|---0--0-0-0-0-0-0--0---0-0-0-0-0-0--|
--------------------------------|------------------------------------|


  S S S S S S S S S S S S S S S S
--5-5---------5-5-5-5-------------||
--5-5---------5-5-5-5-------------||
--x-x---------x-x-x-x-------------||
--7-7---------7-7-7-7-------------||
--7-7---------7-7-7-7-------------||
--5-5---------5-5-5-5-------------||


Duration Legend
---------------
W - whole
H - half
Q - quarter
E - 8th
S - 16th
T - 32nd
X - 64th
. - note dotted
|-n-|  - n-tuplets


Tablature Legend
----------------
L - tied note
x - dead note
g - grace note
(n) - ghost note
> - accentuded note
NH - natural harmonic
AH - artificial harmonic
TH - tapped harmonic
SH - semi harmonic
PH - pitch harmonic
h - hammer on
p - pull off
b - bend
br - bendRelease
pb - preBend
pbr - preBendRelease
brb - bendReleaseBend
\n/ - tremolo bar dip
\n - tremolo bar dive
-/n - tremolo bar Release up
/n\ - tremolo bar inverted dip
/n - tremolo bar return
-\n - tremolo bar Release down
S - shift slide
s - legato slide
/ -  slide into from below or out of upwards
\ -  slide into from above or out of downwards
~ - vibrato
W - wide vibrato
tr - trill
TP - tremolo picking
T - tapping
S - slap
P - pop
< - fade in
^ - brush up
v - brush down


pretty sure thats all correct of not then call me up on it and ill change it. Enjoy peeps!!!
comments
print report bad tab
97 comments total. Showing first comments.
+7 reply
uiop21 wrote on August 12 2007, 02:04 pm

This is 100% correct, the only thing i don't get is how you would do the verse, because whenever I try to reach there with a different figner, it mutes out the e string.

+2 reply
Lord Mike wrote on August 14 2007, 10:05 am

Perfect. 5 stars, no doubt.

+2 reply
Volg wrote on August 16 2007, 12:19 am

5 stars for you ;D

I want to post or [tab]
guest
You may want to rate the tab now too:
select rating
Please do not post tabs as comments. Select "correction" instead!