Oops, an error
Loading. Please wait.

Pretender Tab

version 2
version 2
1,200,399 views 1,449 this week
97 commentsread comments
1 2 3 4 5
excellent!
x 436
add to favorites
launch autoscroll
font size
0
reset
how to read this tab
guitar tuner
Tab Pro tools
  • play this tab
  • loop segment
  • change instrument
  • show fretboard
  • metronome
×
Best way to learn
"Pretender"
Autoscroll
slow
fast
+/-
esc
set tempo
stop
Contributor
Difficulty
Tabbers playing skills
intermediate
intermediate ++
Transcribed by Daniel Drumm, www.soundcloud.com/danieldrumm, www.danieldrumm.com



[Chris Shifflet - Lead Guitar]

e||----------------7-------------|---------0------0------0-----|
B||------------10-----10---------|--------10-----10-----10-----|
G||---------9-------------9------|---------9------9------9-----|
D||-----10-------------------10--|--------10-----10-----10-----|
A||--0---------------------------|--0----------------0------9--|
E||------------------------------|-----7------8----------------|

e|-------------------------------|----------------0-------------|
B|---------------10--------------|------------10-----10---------|
G|------------9------------------|---------9-------------9------|
D|--(10)--10---------------------|-----10-------------------10--| x3
A|---------------------9b--9--8--|------------------------------|
E|-------------------------------|------------------------------|

(on the 3rd time let the last 0 ring amnd play nothing else (when the snare starts))

e|--0-0-2-0-3-0-5-0-0-0-2-0-3-0-5-0-|
B|--5-5-5-5-5-5-5-5-5-5-5-5-5-5-5-5-|
G|----------------------------------| x27
D|----------------------------------|
A|----------------------------------|
E|----------------------------------|

(one time of the above riff then)

e|--0-0---------0-0-0-0-------------|
B|--1-1---------1-1-1-1-------------|
G|--2-2---------2-2-2-2-------------|
D|--2-2---------2-2-2-2-------------|
A|--0-0---------0-0-0-0-------------|
E|----------------------------------|

e|--0-0---------0-0-0-0-------------|
B|--1-1---------1-1-1-1-------------|
G|--2-2---------2-2-2-2-------------|
D|--2-2---------2-2-2-2-------------|
A|--0-0---------0-0-0-0-------------|
E|----------------------------------|
                   
e|----------------------------------|
B|--3-3---------3-3-3-3-------------|
G|--2-2---------2-2-2-2-------------|
D|--0-0---------0-0-0-0-------------|
A|--0-0---------0-0-0-0-------------|
E|--2-2---------2-2-2-2-------------|
                   
e|----------------------------------|
B|--1-1---------1-1-1-1-------------|
G|--0-0---------0-0-0-0-------------|
D|--3-3---------3-3-3-3-------------|
A|--3-3---------3-3-3-3-------------|
E|----------------------------------|
                   
e|--0-0---------0-0-0-0-------------|
B|--1-1---------1-1-1-1-------------|
G|--2-2---------2-2-2-2-------------|
D|--2-2---------2-2-2-2-------------|
A|--0-0---------0-0-0-0-------------|
E|----------------------------------|
                   
e|--0-0---------0-0-0-0-------------|
B|--1-1---------1-1-1-1-------------|
G|--2-2---------2-2-2-2-------------|
D|--2-2---------2-2-2-2-------------|
A|--0-0---------0-0-0-0-------------|
E|----------------------------------|
                   
e|----------------------------------|
B|--3-3---------3-3-3-3-------------|
G|--2-2---------2-2-2-2-------------|
D|--0-0---------0-0-0-0-------------|
A|--0-0---------0-0-0-0-------------|
E|--2-2---------2-2-2-2-------------|

e|---------------------------------|
B|--1-1---------1-1-1-1------------|
G|--0-0---------0-0-0-0------------|
D|--3-3---------3-3-3-3------------|
A|--3-3---------3-3-3-3------------|
E|--------------------------1-0-3--|
                 
e|--0-0---------0-0-0-0-------------|
B|--1-1---------1-1-1-1-------------|
G|--2-2---------2-2-2-2-------------|
D|--2-2---------2-2-2-2-------------|
A|--0-0---------0-0-0-0-------------|
E|----------------------------------|
                 
e|--0-0---------0-0-0-0-------------|
B|--1-1---------1-1-1-1-------------|
G|--2-2---------2-2-2-2-------------|
D|--2-2---------2-2-2-2-------------|
A|--0-0---------0-0-0-0-------------|
E|----------------------------------|
                 
e|----------------------------------|
B|--3-3---------3-3-3-3-------------|
G|--2-2---------2-2-2-2-------------|
D|--0-0---------0-0-0-0-------------|
A|--0-0---------0-0-0-0-------------|
E|--2-2---------2-2-2-2-------------|

e|---------------------------------|
B|--1-1---------1-1-1-1------------|
G|--0-0---------0-0-0-0------------|
D|--3-3---------3-3-3-3------------|
A|--3-3---------3-3-3-3------------|
E|--------------------------1-0-3--|

      PM PM PM PM         PM PM PM PM PM PM                        
e|--0-0-------------0-0-0-0-------------------|
B|--1-1-------------1-1-1-1-------------------|
G|--2-2-2--2--2--2--2-2-2-2-2--2--2--2--2--2--|
D|--2-2-2--2--2--2--2-2-2-2-2--2--2--2--2--2--|
A|--0-0-0--0--0--0--0-0-0-0-0--0--0--0--0--0--|
E|--------------------------------------------|

      PM PM PM PM         PM PM PM PM PM PM                         
e|--0-0-------------0-0-0-0-------------------|
B|--1-1-------------1-1-1-1-------------------|
G|--2-2-2--2--2--2--2-2-2-2-2--2--2--2--2--2--|
D|--2-2-2--2--2--2--2-2-2-2-2--2--2--2--2--2--|
A|--0-0-0--0--0--0--0-0-0-0-0--0--0--0--0--0--|
E|--------------------------------------------|

      PM PM PM PM         PM PM PM PM PM PM                        
e|--------------------------------------------|
B|--3-3-------------3-3-3-3-------------------|
G|--2-2-------------2-2-2-2-------------------|
D|--0-0-------------0-0-0-0-------------------|
A|--0-0-------------0-0-0-0-------------------|
E|--2-2-2--2--2--2--2-2-2-2-2--2--2--2--2--2--|

       PM PM PM PM         PM PM PM PM PM PM                        
e|--------------------------------------------|
B|--1-1-------------1-1-1-1-------------------|
G|--0-0-------------0-0-0-0-------------------|
D|--3-3-------------3-3-3-3-------------------|
A|--3-3-3--3--3--3--3-3-3-3-3--3--3--3--3--3--|
E|------1--1--1--1----------1--1--1--1--1--1--|
                   
e|----------------------------------|
B|--3-3-3-3-3-3-3-3-3-3-3-3-3-3-3-3-|
G|--2-2-2-2-2-2-2-2-2-2-2-2-2-2-2-2-|
D|--0-0-0-0-0-0-0-0-0-0-0-0-0-0-0-0-|
A|--0-0-0-0-0-0-0-0-0-0-0-0-0-0-0-0-|
E|--2-2-2-2-2-2-2-2-2-2-2-2-2-2-2-2-|
                           
e|------------------------------------------|
B|------------------------------------------|
G|--7-7-7-7-9-9-9-9-11-11-11-11-12-12-12-12-| Shifflet over this last bit.
D|--x-x-x-x-x-x-x-x--x--x--x--x--x--x--x--x-| This is also repeated over the
A|--5-5-5-5-7-7-7-7--9--9--9--9-10-10-10-10-| bit between the 2nd chorus and
E|------------------------------------------| the bridge


[Shifflet Chorus]
                           
e|---0--0--0--0--0--0--0--0--0--0--0--0--0--0---|
B|--10-10-10-10-10-10-10-10-10-10-10-10-10-10-1-|
G|---9--9--9--9--9--9--9--9--9--9--9--9--9--9---|
D|--10-10-10-10-10-10-10-10-10-10-10-10-10-10-1-|
A|----------------------------------------------|
E|----------------------------------------------|
                             
e|---0--0--0--0--0--0--0--0--0--0--0--0--0--0---|
B|--10-10-10-10-10-10-10-10-10-10-10-10-10-10-1-|
G|---9--9--9--9--9--9--9--9--9--9--9--9--9--9---|
D|--10-10-10-10-10-10-10-10-10-10-10-10-10-10-1-|
A|---0--0--x--x--x--x--x--x--x--x--0--0--0--0---|
E|---------7--7--7--7--8--8--8--8---------------|
                        
e|-----0--0--0--0--0--0--0--0--0--0--0--0--0---|
B|----10-10-10-10-10-10-10-10-10-10-10-10-10-1-|
G|-----9--9--9--9--9--9--9--9--9--9--9--9--9---|
D|----10-10-10-10-10-10-10-10-10-10-10-10-10-1-|
A|-----9--9--9--9--9--9--9--9--9--9--9--9--9---|
E|---------------------------------------------|
                             
e|---0--0--0--0--0--0--0--0--0--0--0--0--0--0---|
B|--10-10-10-10-10-10-10-10-10-10-10-10-10-10-1-|
G|---9--9--9--9--9--9--9--9--9--9--9--9--9--9---|
D|--10-10-10-10-10-10-10-10-10-10-10-10-10-10-1-|
A|---8--8--8--8--8--8--8--8--8--8--8--8--8--8---|
E|----------------------------------------------|


[Grohl Chorus]
                 
e|--0-0-0-0-0-0-0-0-0-0-0-0-0-0-0-0-|
B|--1-1-1-1-1-1-1-1-1-1-1-1-1-1-1-1-|
G|--2-2-2-2-2-2-2-2-2-2-2-2-2-2-2-2-|
D|--2-2-2-2-2-2-2-2-2-2-2-2-2-2-2-2-|
A|--0-0-0-0-0-0-0-0-0-0-0-0-0-0-0-0-|
E|----------------------------------|
      
e|--0-0-0-0-0-0-0-0-0-0-0-0-0-0----|
B|--1-1-1-1-1-1-1-1-1-1-1-1-1-1-3--|
G|--2-2-2-2-2-2-2-2-2-2-2-2-2-2-2--|
D|--2-2-2-2-2-2-2-2-2-2-2-2-2-2-0--|
A|--0-0-0-0-0-0-0-0-0-0-0-0-0-0-0--|
E|------------------------------2--|
           
e|--------------------------------|
B|----3-3-3-3-3-3-3-3-3-3-3-3-3-3-|
G|----2-2-2-2-2-2-2-2-2-2-2-2-2-2-|
D|----0-0-0-0-0-0-0-0-0-0-0-0-0-0-|
A|----0-0-0-0-0-0-0-0-0-0-0-0-0-0-|
E|----2-2-2-2-2-2-2-2-2-2-2-2-2-2-|
                 
e|----------------------------------|
B|--1-1-1-1-1-1-1-1-1-1-1-1-1-1-1-1-|
G|--0-0-0-0-0-0-0-0-0-0-0-0-0-0-0-0-|
D|--3-3-3-3-3-3-3-3-3-3-3-3-3-3-3-3-|
A|--3-3-3-3-3-3-3-3-3-3-3-3-3-3-3-3-|
E|----------------------------------|


[Shifflet]

e|--------------------------------|
B|--------------------------------|
G|--------------------------------|
D|--2-2-4---5---7-2--2-4---5---4--|
A|--0-0-0-0-0-0-0-0--0-0-0-0-0-0--|
E|--------------------------------|


(Then same as beggining section but half the umber before going into the PMed bits)
(Chorus agen but afor mentioned link bit between the end and the bridge)


[Shifflet]

e|--------------------------------|--------------------------------|
B|--------------------------------|--------------------------------|
G|--------------------------------|--------------------------------|
D|--2-2-4---5---7-2--2-4---5---4--|--2-2-4---5---7-2--2-4---5---4--|
A|--0-0-0-0-0-0-0-0--0-0-0-0-0-0--|--0-0-0-0-0-0-0-0--0-0-0-0-0-0--|
E|--------------------------------|--------------------------------|
     
e|--------------------------------|--------------------------------------|
B|--------------------------------|--------------------------------------|
G|--------------------------------|--------------------------------------|
D|--2-2-4---5---7-2--2-4---5---4--|--10-10-9---7-5---10--10-9---7-5---10-|
A|--0-0-0-0-0-0-0-0--0-0-0-0-0-0--|---0--0-0-0-0-0-0--0---0-0-0-0-0-0--0-|
E|--------------------------------|--------------------------------------|
        
e|--------------------------------------|
B|--------------------------------------|
G|--------------------------------------|
D|--10-10-9---7-5---10--10-9---7-5---10-|
A|---0--0-0-0-0-0-0--0---0-0-0-0-0-0--0-|
E|--------------------------------------|
         
e|-----------------------------------------|
B|-----------------------------------------|
G|-----------------------------------------|
D|----12-10---9-10---12--12-10---9-10---12-|
A|--0--0--0-0-0--0-0--0---0--0-0-0--0-0--0-|
E|-----------------------------------------|

                                              TP         TP
e|-----------------------------------------|------------------------|
B|-----------------------------------------|------------------------|
G|-----------------------------------------|------------------------|
D|----12-10---9-10---12--12-10---9-10---12-|--13b--------13b--------|
A|--0--0--0-0-0--0-0--0---0--0-0-0--0-0--0-|---0----------0---------|
E|-----------------------------------------|------------------------|

    TP         TP
e|------------------------|--------------------------------|
B|------------------------|--------------------------------|
G|------------------------|--------------------------------|
D|--13b--------13b--------|--2-2-4---5---7-2--2-4---5---4--|
A|---0----------0---------|--0-0-0-0-0-0-0-0--0-0-0-0-0-0--|
E|------------------------|--------------------------------|

(Grohl Just strums the open A chord with a flager once at the start of every bar until
13b (TPH) which is played by grohl and Shifflet plays the following)

 
e|------------------------------------|------------------------------------|
B|--------8~--10~-----------8~--10~---|--------8~--10~-----------8~--10~---|
G|--7b~------------7~-7b~-------------|--7b~------------7~-7b~-------------|x2
D|------------------------------------|------------------------------------|
A|------------------------------------|------------------------------------|
E|------------------------------------|------------------------------------|
   
E||----------------7-------------|---------0------0------0-----|
B||------------10-----10---------|--------10-----10-----10-----|
G||---------9-------------9------|---------9------9------9-----|
D||-----10-------------------10--|--------10-----10-----10-----|
A||--0---------------------------|--0----------------0------9--|
E||------------------------------|-----7------8----------------|

e|-------------------------------|----------------0-------------|
B|---------------10--------------|------------10-----10---------|
G|------------9------------------|---------9-------------9------|
D|--(10)--10---------------------|-----10-------------------10--|
A|---------------------9b--9--8--|------------------------------|
E|-------------------------------|------------------------------|


[Shifflet Chorus]
                           
e||---0--0--0--0--0--0--0--0--0--0--0--0--0--0---|
B||--10-10-10-10-10-10-10-10-10-10-10-10-10-10-1-|
G||---9--9--9--9--9--9--9--9--9--9--9--9--9--9---|
D||--10-10-10-10-10-10-10-10-10-10-10-10-10-10-1-|
A||----------------------------------------------|
E||----------------------------------------------|
                             
e|---0--0--0--0--0--0--0--0--0--0--0--0--0--0---|
B|--10-10-10-10-10-10-10-10-10-10-10-10-10-10-1-|
G|---9--9--9--9--9--9--9--9--9--9--9--9--9--9---|
D|--10-10-10-10-10-10-10-10-10-10-10-10-10-10-1-|
A|---0--0--x--x--x--x--x--x--x--x--0--0--0--0---|
E|---------7--7--7--7--8--8--8--8---------------|
                        
e|-----0--0--0--0--0--0--0--0--0--0--0--0--0---|
B|----10-10-10-10-10-10-10-10-10-10-10-10-10-1-|
G|-----9--9--9--9--9--9--9--9--9--9--9--9--9---|
D|----10-10-10-10-10-10-10-10-10-10-10-10-10-1-|
A|-----9--9--9--9--9--9--9--9--9--9--9--9--9---|
E|---------------------------------------------|
                             
e|---0--0--0--0--0--0--0--0--0--0--0--0--0--0---||
B|--10-10-10-10-10-10-10-10-10-10-10-10-10-10-1-||
G|---9--9--9--9--9--9--9--9--9--9--9--9--9--9---||
D|--10-10-10-10-10-10-10-10-10-10-10-10-10-10-1-||
A|---8--8--8--8--8--8--8--8--8--8--8--8--8--8---||   x2
E|----------------------------------------------||


[Grohl Chorus]
                 
e||--0-0-0-0-0-0-0-0-0-0-0-0-0-0-0-0-|
B||--1-1-1-1-1-1-1-1-1-1-1-1-1-1-1-1-|
G||--2-2-2-2-2-2-2-2-2-2-2-2-2-2-2-2-|
D||--2-2-2-2-2-2-2-2-2-2-2-2-2-2-2-2-|
A||--0-0-0-0-0-0-0-0-0-0-0-0-0-0-0-0-|
E||----------------------------------|
      
e|--0-0-0-0-0-0-0-0-0-0-0-0-0-0----|
B|--1-1-1-1-1-1-1-1-1-1-1-1-1-1-3--|
G|--2-2-2-2-2-2-2-2-2-2-2-2-2-2-2--|
D|--2-2-2-2-2-2-2-2-2-2-2-2-2-2-0--|
A|--0-0-0-0-0-0-0-0-0-0-0-0-0-0-0--|
E|------------------------------2--|
           
e|--------------------------------|
B|----3-3-3-3-3-3-3-3-3-3-3-3-3-3-|
G|----2-2-2-2-2-2-2-2-2-2-2-2-2-2-|
D|----0-0-0-0-0-0-0-0-0-0-0-0-0-0-|
A|----0-0-0-0-0-0-0-0-0-0-0-0-0-0-|
E|----2-2-2-2-2-2-2-2-2-2-2-2-2-2-|
                 
e|----------------------------------||
B|--1-1-1-1-1-1-1-1-1-1-1-1-1-1-1-1-||
G|--0-0-0-0-0-0-0-0-0-0-0-0-0-0-0-0-||
D|--3-3-3-3-3-3-3-3-3-3-3-3-3-3-3-3-||
A|--3-3-3-3-3-3-3-3-3-3-3-3-3-3-3-3-||  x2
E|----------------------------------||

(the second time round of the chorus Shifflet changes to this lead. This is how it would 
done live with 2 guitars. On the recording the origonal riff would continue while this 
on top of it)

                 
e|----------------------------------|
B|----------------------------------|
G|--9-9-9-9-9-9-9-9-9-9-9-9-9-9-9-9-|
D|--x-x-x-x-x-x-x-x-x-x-x-x-x-x-x-x-|
A|--7-7-7-7-7-7-7-7-7-7-7-7-7-7-7-7-|
E|----------------------------------|
                     
e|------------------------------------------|
B|------------------------------------------|
G|--9-9-11-11-11-11-12-12-12-12-9-9-9-9-11--|
D|--x-x--x--x--x--x--x--x--x--x-x-x-x-x--x--|
A|--7-7--9--9--9--9-10-10-10-10-7-7-7-7--9--|
E|------------------------------------------|
 
e|----------------------------------------------|
B|----------------------------------------------|
G|-----11-11-11-11-11-11-11-11--9--9-11-11-12-1-|
D|------x--x--x--x--x--x--x--x--x--x--x--x--x---|
A|------9--9--9--9--9--9--9--9--7--7--9--9-10-1-|
E|----------------------------------------------|
                             
e|----------------------------------------------|
B|----------------------------------------------|
G|--12-12-12-12-12-12-12-12-12-12-12-12-12-12-1-|
D|---x--x--x--x--x--x--x--x--x--x--x--x--x--x---|
A|--10-10-10-10-10-10-10-10-10-10-10-10-10-10-1-|
E|----------------------------------------------|

(The link section again)
(Grohl plays this on the outro)

                 
e|----------------------------------|
B|----------------------------------|
G|----------------------------------| x3
D|--7-7-7-7-7-7-7-7-7-7-7-7-7-7-7-7-|
A|--7-7-7-7-7-7-7-7-7-7-7-7-7-7-7-7-|
E|--5-5-5-5-5-5-5-5-5-5-5-5-5-5-5-5-|
                 
e|----------------------------------|
B|----------------------------------|
G|----------------------------------|
D|--7-7---------7-7-7-7-------------|
A|--7-7---------7-7-7-7-------------|
E|--5-5---------5-5-5-5-------------|

 (and Shifflet plays this)

e|--------------------------------|
B|--------------------------------|
G|--------------------------------|
D|--2-2-4---5---7-2--2-4---5---4--|
A|--0-0-0-0-0-0-0-0--0-0-0-0-0-0--|
E|--------------------------------|

e|--------------------------------|------------------------------------|
B|--------------------------------|------------------------------------|
G|--------------------------------|------------------------------------|
D|--2-2-4---5---7-2--2-4---5---4--|--10-10-9---7-5---10--10-9---7-5----|
A|--0-0-0-0-0-0-0-0--0-0-0-0-0-0--|---0--0-0-0-0-0-0--0---0-0-0-0-0-0--|
E|--------------------------------|------------------------------------|
                 
e|--5-5---------5-5-5-5-------------|
B|--5-5---------5-5-5-5-------------|
G|--x-x---------x-x-x-x-------------|
D|--7-7---------7-7-7-7-------------|
A|--7-7---------7-7-7-7-------------|
E|--5-5---------5-5-5-5-------------|


*************************
|x    Dead note
|b    Bend
|~    Vibrato
|(n)  Ghost note
|TP   Tremolo Picking
*************************
comments
print report bad tab
97 comments total. Showing first comments.
+7 reply
uiop21 wrote on August 12 2007, 02:04 pm

This is 100% correct, the only thing i don't get is how you would do the verse, because whenever I try to reach there with a different figner, it mutes out the e string.

+2 reply
Lord Mike wrote on August 14 2007, 10:05 am

Perfect. 5 stars, no doubt.

+2 reply
Volg wrote on August 16 2007, 12:19 am

5 stars for you ;D

I want to post or [tab]
guest
You may want to rate the tab now too:
select rating
Please do not post tabs as comments. Select "correction" instead!