Oops, an error
Loading. Please wait.

Rare Songs Tab

9,357 views 1 this week
5 commentsread comments
1 2 3 4 5
worth learning
x 5
add to favorites
launch autoscroll
font size
0
reset
how to read this tab
guitar tuner
Autoscroll
slow
fast
+/-
esc
set tempo
stop
Help us to improve Ultimate-Guitar.com Take our survey!
×
I know there is no such albums, but this is a collection of tabs for the most rare foo songs.

Tab by=JCB
Album-??

Foo Fighters - How I Miss You
(Drop D Tuning)


Verse
e|-------------------------------------------------------------|
b|-------------------------------------------------------------|
g|-11--------11--------11--13--------13--------13----------13--|
d|-------------------------------------------------------------|
a|-9---------9---------9---11--------11--------11----------11--|
d|-0--0--0---0--0--0---0---0---0--0--0---0--0--0---0---0---0---|
1.       How i miss you  [x3]
2.       Did i lose you  [x3]
3.       Do you miss me
         Like i miss you
         If you miss me

 Verse [cont'd]
e|---------------------------------------------------------------|
b|---------------------------------------------------------------|
g|--9--------9--9--7--------7--7---10-------10----10----10-10-10-|
d|---------------------------------------------------------------|
a|--7--7--7--7--7--5--5--5--5--5---8--8--8--8--8--8--8--8--8--8--|
e|--0--0--0--0--0--0--0--0--0--0---0--0--0--0--0--0--0--0--0--0--|
1.I should never call          how i hope that you still miss me 
2.Somewhere down the line       hide and seeks alrigt if i find
3.    Never go away        hopefully you'll come and stay someday

e|--------------------------------------------------------------|
b|--------------------------------------------------------------|
g|--12-12-12-12-12-12-12-12-10-10-10-10-10-10-10-10-13-13-13-13-|
d|--------------------------------------------------------------|
a|--10-10-10-10-10-10-10-10-8--8--8--8--8--8--8--8--11-11-11-11-|
d|--0--0--0--0--0--0--0--0--0--0--0--0--0--0--0--0--0--0--0--0--|
          If you're leaving                       come back soon
          that's not easy                         to say
          I will wait here                        dream of you

e|-----------------------------------------------------|
b|-----------------------------------------------------|
g|--12-12-12-12-12-12-12-12-10-10-10-10-10-10-10-10-5--|
d|-----------------------------------------------------|
a|--10-10-10-10-10-10-10-10-8--8--8--8--8--8--8--8--3--|
e|--0--0--0--0--0--0--0--0--0--0--0--0--0--0--0--0--0--|
                all       alone      as       i    ache

 [Now kick on the Distortion]
e|-------------------------------------------------------------|
b|-------------------------------------------------------------|
g|-11--------11--------11--13--------13--------13----------13--|
d|-------------------------------------------------------------|
a|-9---------9---------9---11--------11--------11----------11--|
d|-0--0--0---0--0--0---0---0---0--0--0---0--0--0---0---0---0---|
1.       Did i lose you [x3]
2.       Did you miss me
         Like i miss you
         If you miss me

e|---------------------------------------------------------------|
b|---------------------------------------------------------------|
g|--9--------9--9--7--------7--7---10-------10----10----10-10-10-|
d|---------------------------------------------------------------|
a|--7--7--7--7--7--5--5--5--5--5---8--8--8--8--8--8--8--8--8--8--|
e|--0--0--0--0--0--0--0--0--0--0---0--0--0--0--0--0--0--0--0--0--|
1. Somewhere down the line       hide and seeks alrigt if i find
2. Never go away          hopefully you'll come and stay someday

e|--------------------------------------------------------------|
b|--------------------------------------------------------------|
g|--12-12-12-12-12-12-12-12-10-10-10-10-10-10-10-10-13-13-13-13-|
d|--------------------------------------------------------------|
a|--10-10-10-10-10-10-10-10-8--8--8--8--8--8--8--8--11-11-11-11-|
d|--0--0--0--0--0--0--0--0--0--0--0--0--0--0--0--0--0--0--0--0--|
          If you're leaving                       come back soon
          that's not easy                         to say
          I will wait here                        dream of you

e|-----------------------------------------------------|
b|-----------------------------------------------------|
g|--12-12-12-12-12-12-12-12-10-10-10-10-10-10-10-10-5--|
d|-----------------------------------------------------|
a|--10-10-10-10-10-10-10-10-8--8--8--8--8--8--8--8--3--|
e|--0--0--0--0--0--0--0--0--0--0--0--0--0--0--0--0--0--|
                all       alone      as       i    ache

[Now turn the Distortion off]
e|-------------------------------------------------------------|
b|-------------------------------------------------------------|
g|-11--------11--------11--13--------13--------13----------13--|
d|-------------------------------------------------------------|
a|-9---------9---------9---11--------11--------11----------11--|
d|-0--0--0---0--0--0---0---0---0--0--0---0--0--0---0---0---0---|
         How i miss you  [x3]

  [quiet]                       [unplugged guitar]
e|---------------------------------------------------------------|
b|---------------------------------------------------------------|
g|--9--------9--9--7--------7------------------------------------|
d|---------------------------------------------------------------|
a|--7--7--7--7--7--5--5--5---------------------------------------|
e|--0--0--0--0--0--0--0--0--0------------------------------------|
1. I should never call          how i hope that you still miss me

___________________________
Foo Fighters - Fraternity
(Normal Tuning)


Intro/Verse
   Riff 1               Riff 2               Riff 3
     D#5   C5    G5       D#5   C5    G#5      D#5   C5    G5   G#5   F5
e||-------------------||-------------------||------------------------------|| 
B||-------------------||-------------------||------------------------------||
G||--8-8---5-5--------||--8-8---5-5--------||--8-8---5-5-------------------||
D||--8-8---5-5---5-5--||--8-8---5-5---6-6--||--8-8---5-5---5-5--6-6---3-3--||
A||--6-6---3-3---5-5--||--6-6---3-3---6-6--||--6-6---3-3---5-5--6-6---3-3--||
E||--------------3-3--||--------------4-4--||--------------3-3--4-4---1-1--||

(Gtr. 2) Riffs in Verse 
e|---------------------------------|--------------------------------|
B|--6-6-6---8---6-6--------------6-|-6-6-6---8---6-6--------------9-|
G|---------------------8---7-7-----|--------------------8---7-7-----|
D|---------------------------------|--------------------------------|
A|---------------------------------|--------------------------------|
E|---------------------------------|--------------------------------|

e|---------------------------------|------------------|
B|--6-6-6---8---6-6--------------6-|--6-6-6---8-------|
G|---------------------8---7-7-----|---------------7--|
D|---------------------------------|------------------|
A|---------------------------------|------------------|
E|---------------------------------|------------------|


Chorus
e||------------------------------------------|| 
B||------------------------------------------||
G||--4-4---\8-8------------------4-4---\8-8--||
D||--4-4---\8-8---6-6----\8-8----4-4---\8-8--||
A||--2-2---\6-6---6-6----\8-8----2-2---\6-6--||
E||---------------4-4----\6-6----------------||


Solo
(Gtr.1)
e||-------6-----------6------------6-----------6--|| 
B||--7-7--7------7-7--7-------7-7--7------7-7--7--|| (8x)
G||-----------------------------------------------||
D||-----------------------------------------------||
A||-----------------------------------------------||
E||-----------------------------------------------||

(Gtr. 2)
e||--6-------6-------6-------6--------|| 
B||--6-7-9-7-6-7-9-7-6-7-9-7-6-7-9-7--|| (8x)
G||-----------------------------------||
D||-----------------------------------||
A||-----------------------------------||
E||-----------------------------------||


Bridge
  (Gtr. 1)
e||------------------------------|| 
B||------------------------------||
G||--6-6-----4-4-----\8-x-8-x-8--||
D||--6-6-----4-4-----\8-x-8-x-8--||
A||--4-4-----2-2-----\6-x-6-x-6--||
E||------------------------------||

 (Gtr. 2) Solo in Bridge 
e|-----------------------------------------|
B|--7-7-9----7-7-7-9----7-7-7-9----7-7-7-9-|
G|-----------------------------------------|
D|-----------------------------------------|
A|-----------------------------------------|
E|-----------------------------------------|

e|-----------------------------------------|----------------|
B|--6-6-8----6-6-6-8----6-6-6-8----6-6-6-8-|-6~~-------4~~--|
G|-----------------------------------------|----------------|
D|-----------------------------------------|----------------|
A|-----------------------------------------|----------------|
E|-----------------------------------------|----------------|
 (X2)  


Outro
Gtr. 1 (Intro 3x)

Gtr. 2 (Solo Gtr.2)


solo
     D#/A#              C/G       G      D#/A#             C/G      G
e|----------------------------------------------------------------------|
B|--------------------------------11-----11-11-11-13-11----------11-----|
G|---10-10-10-12--10-12-13--12-13-----------------------13-12-13----13--|
D|----------------------------------------------------------------------|
A|----------------------------------------------------------------------|
E|----------------------------------------------------------------------|

      D#/A#               C/G      G            G#    F
e|----13-13-13-15--13-11-10 11-13--------------11-10-13-11--------------|
B|--------------------------------11-----11-13--------------------------|
G|----------------------------------------------------------------------|
D|----------------------------------------------------------------------|
A|----------------------------------------------------------------------|
E|----------------------------------------------------------------------|

___________________________
Foo Fighters - Podunk
(Normal Tuning)

  
e||--------------------------------------------------||
B||--------------------------------------------------||
G||--------------------------------------------------||
D||--4--4--X--4--4--4--X--X--4--4--X--4--4--X--X--X--||
A||--4--4--X--4--4--4--X--X--4--4--X--4--4--X--X--X--||
E||--1--1--X--1--1--1--X--X--1--1--X--1--1--X--X--X--||


e||----------------------------------------------------||
B||----------------------------------------------------||
G||----------------------------------------------------||
D||----------------------------------------------------||
A||----------------------------------------------------||
E||-7-7-7-7-7-7-7-7-7--3--5---6-6-6-6-6-6-6-6-6--3--5--||

___________________________
Foo Fighters - Damn You Damn Everyone
(Normal Tuning)


Verse/Chorus
e|-----------------------------------------------------------------------------|
B|-----------------------------------------------------------------------------|
G|---------------------------------------5-5-5-5-5-5-5-5------4-4-4-4-4-4-4-4--|
D|---------------------------------------3-3-3-3-3-3-3-3------2-2-2-2-2-2-2-2--|
A|--7-7-7-7-7-7-7-7--5-5-5-5-5-5-5-5-------------------------------------------|
E|--5-5-5-5-5-5-5-5--3-3-3-3-3-3-3-3-------------------------------------------|

e|-----------------------------------|
B|-----------------------------------|
G|-----------------------------------|
D|--7-7-7-7-7-7-7-7-7-7-7-7-7-7-7-7--|
A|--5-5-5-5-5-5-5-5-5-5-5-5-5-5-5-5--|
E|-----------------------------------|


Bridge
e|-------------------------------------------------------------------------------|
B|-------------------------------------------------------------------------------|
G|--5-5-5-5-5-5-5-5-------4-4-4-4-4-4-4-4----------------------------------------|
D|--3-3-3-3-3-3-3-3-------2-2-2-2-2-2-2-2-------7-7-7-7-7-7-7-7-7-7-7-7-7-7-7-7--|
A|--3-3-3-3-3-3-3-3-------2-2-2-2-2-2-2-2-------5-5-5-5-5-5-5-5-5-5-5-5-5-5-5-5--|
E|-------------------------------------------------------------------------------|


Verse w/Distortion (Guitar 2 comes in and double guitar 1 throughout)
e|---------------------------------------------------------------------------------|
B|---------------------------------------------------------------------------------|
G|-------------------------------------------5-5-5-5-5-5-5-5------4-4-4-4-4-4-4-4--|
D|--7-7-7-7-7-7-7-7--5-5-5-5-5-5-5-5---------3-3-3-3-3-3-3-3------2-2-2-2-2-2-2-2--|
A|--7-7-7-7-7-7-7-7--5-5-5-5-5-5-5-5---------3-3-3-3-3-3-3-3------2-2-2-2-2-2-2-2--|
E|--5-5-5-5-5-5-5-5--3-3-3-3-3-3-3-3-----------------------------------------------|

   PM------|
e|--------------------|
B|--------------------|
G|-7-7-7-7-7-7-7-7-7--|
D|-7-7-7-7-7-7-7-7-7--|
A|-5-5-5-5-0-0-5-0-5--|
E|--------------------|

    

CHORUS 


Bridge 2 w/distortion
e|----------------------------|
B|----------------------------|
G|----------------------------|
D|--4-------------------------|
A|-------5-----3-3-3-3-3-3-3--|
E|----------------------------|



Interlude w/distortion 
 try one...                            running to it  running into it  
e|----------------------------------------------------------------|
B|----------------------------------------------------------------|
G|-------------------------------------5-5-5-5-5-5---8-8-8-8-8-8--|
D|--5---7-7---5-5---7-7---5---7-7------3-3-3-3-3-3---6-6-6-6-6-6--|
A|--3-5-5-5-7-3-3-5-5-5-7-3-5-5-5-7----3-3-3-3-3-3---6-6-6-6-6-6--|
E|----3-----5-----3-----5---3-----5-------------------------------|


Solo (other guitar plays verse)
e|----------------------------------------------------------------------------|
B|----------------------------------------------------------------------------|
G|--6-6-4-9-11-5-4-2-4-2---5-4-2-0-4-2---6-6-4-9-11-5-4-2-4-2---5-4-2-0-4^-2--|
D|-----------------------5------------------------------------5---------------|
A|----------------------------------------------------------------------------|
E|----------------------------------------------------------------------------|

Solo (2nd Version)
e|----------------------------------------------------------|
B|----------------7-----------------------------------------|
G|--6--6----------------------------------5-----------------|
D|---------9--7------9---7--9--7-------------9--7--5--9--7--|
A|----------------------------------------------------------|
E|----------------------------------------------------------|


BRIDGE


CHORUS


Outro
e|----------------------|
B|----------------------|
G|----------------------|
D|--4^------------------|
A|-----5-3-3-3-3-3-3-3--|
E|----------------------|

__________________________________
Butterflies
(Normal Tuning)


Intro/Verse
     A       D       A       D       A       G
e||----------2-2-2-2---------2-2-2-2---------3-3-3-3--||
B||--2-2-2-2-3-3-3-3-2-2-2-2-3-3-3-3-2-2-2-2-3-3-3-3--||
G||--2-2-2-2-2-2-2-2-2-2-2-2-2-2-2-2-2-2-2-2-0-0-0-0--||
D||--2-2-2-2-0-0-0-0-2-2-2-2-0-0-0-0-2-2-2-2-0-0-0-0--||
A||--0-0-0-0---------0-0-0-0---------0-0-0-0-2-2-2-2--||
E||------------------------------------------3-3-3-3--||


Pre-Chorus
     F#5       E               F#5       F5
e||------------------0-------|----------------------------||
B||----------------0---0---0-|----------------------------||
G||----------------------1---|----------------------------||
D||--4-4--4-4--2-------------|-4-4--4-4--3-3-3-3-3-3-3-3--||
A||--4-4--4-4--2-------------|-4-4--4-4--3-3-3-3-3-3-3-3--||
E||--2-2--2-2--0-------------|-2-2--2-2--1-1-1-1-1-1-1-1--||
  (3x)


Verse


Chorus
e||----------------------------------|------------------||
B||----------------------------------|------------------||
G||----------------------------------|------------------||
D||--4-4--4-4--2--------3-2--------3-|-3-3-3-3-3-3-3-3--||
A||--4-4--4-4--2--------3-2--------3-|-3-3-3-3-3-3-3-3--||
E||--2-2--2-2--0--3-4-0---0--3-4-0---|-1-1-1-1-1-1-1-1--||
  (3x)


Verse


Chorus


Solo
e||--------------------------------------------------------------------|
B||--------------------------------------------------------------------|
G||--9-9-9-9-11-11-11-11-9-9-9-9-11-11-11-11-9-9-9-9-12-12-12-12-12-12-|
D||--------------------------------------------------------------------|
A||--------------------------------------------------------------------|
E||--------------------------------------------------------------------|

e|--------------------------------------------------------------------------||
B|-10-10-10-10-------------10-10-10-10-------------10-10-10-10-12-10-8-8-8--||
G|-------------11-11-11-11-------------11-11-11-11--------------------------||
D|--------------------------------------------------------------------------||
A|--------------------------------------------------------------------------||
E|--------------------------------------------------------------------------||


Chorus

___________________________

Foo Fighters - Dear Lover
(Normal Tuning)


Chords
     C   D  Dsus Em  G   A7  Am7
e||--0---2---0---0---3---0---0--||
B||--1---3---3---0---3---2---1--||
G||--0---2---2---0---0---0---0--||
D||--2---0---0---2---0---2---2--||
A||--3-----------2---2---0---0--||
E||--------------0---3----------||


Intro/Verse
A7        D        A7         D            A7 
   Dear Lover, do you remember the sound of your 
D
laughter with mine


Pre-Chorus
Em           D  Em      D    
That was all I could fall in love


Chorus (Octaves)
A5~B5   B5   A5  A5   D5  D5 G5 G5 A5 F#5 
  Did you find some happiness with me

B5   B5 A5   A5  A5   A5   G5    G5 A5  F#5
Now I know the way true love should be 


Bridge
C, G, Dsus, Am7


Outro
Em, D

___________________________

That's all for now ill do some more in the future, until then i'll be sleepin'
C'ya gang
Suggest correction new What's this?
You can suggest a correction to this tab. Community and Mods will review your correction and vote to approve or reject it.
comments
print report bad tab
5 comments total. Showing first comments.
0 reply
spoonman017 71 wrote on September 1 2004, 12:00 am

You got this off their website. Most of it's wrong anyways.

0 reply
Boot 566 wrote on April 25 2005, 12:00 am

I dont know most of these songs...but there good anyways.

0 reply
Bert_Hastings 278 wrote on August 4 2007, 11:06 am

what is the point of this? if someone wants to learn fraternaty, they'll type it in the search box, they wont look for a page of rare Foo songs.

guest
You may want to rate the tab now too:
select rating
Please do not post tabs as comments. Select "correction" instead!