Oops, an error
Loading. Please wait.

Requiem tab

version 1
version 1

Whole song

Interactive

2,696 views 1 this week
4 commentsread comments
1 2 3 4 5
x 4
add to favorites
×
Save as Personal and add changes to this tab that will be seen only by you. Learn more ›
×
You can save this tab as Personal to edit and correct it or add notes. All changes will be seen only by you. Learn more »
launch autoscroll
font size
0
reset
how to read this tab
guitar tuner
edit
Autoscroll
slow
fast
+/-
esc
set tempo
stop
#----------------------------------PLEASE NOTE---------------------------------#
#This file is the author's own work and represents their interpretation of the #
#song. You may only use this file for private study, scholarship, or research. #
#------------------------------------------------------------------------------#
#

Date: Wed, 05 Nov 97 01:48:09 GMT
From: Caffeine 
To: guitar@olga.net
Subject: 

*******************************
*"Requiem" by    foo fighters *
*original song by Killing Joke*
*******************************

Intro (first guitar)
E ----
B ----
G ----
D --7-
A --7-
E --5-

Intro (second guitar)
E --------------------------------------------------|
B --------------------------------------------------|
G ------8--6--4--2----------------------------------|
D ----------------------4--2--0--------5------5-----|
A --------------------------------------------------|
E --5------------------------------3-3----3-3-------|

Other Part (played by first guitar)
E -------------------------------------------------------------------|
B -------------------------------------------------------------------|
G -------------------------------------------------------------------|
D ---7--7--7---7---7---7-7------4--4--4--5--5--5---------------------|
A ---7--7--7---7---7--7--7------4--4--4--5--5--5---------------------|
E ---5--5--5---5---5--5--5------2--2--2--3--3--3---------------------|
                                      *                  *
*
* second guitar play just the chords marked by a *


Lyrics:

man watching video
there heart keeps on ticking
he doesnt know why
hes just caring  for slither

the, Requiem
the, Requiem
the, Requiem

any need for words
when you cease to function
when theres nothing to say
when will it start worrying you

the, Requiem
the, Requiem
the, Requiem

their hints of religion
im sensing spirits of depravity
the sound of breaking glass
this is the reflection

the, Requiem
the, Requiem
the, Requiem

~justin

            
            
Suggest correction
Creating personal tab
Creating personal tab
You can edit any tab online and save it as your Personal.

You can edit, replace or remove any tab part or add personal notes – all changes will be seen only by you.

Personal tabs can be accessed anytime from any device, even offline.
Learn more »
comments
print report bad tab
4 comments total. Showing first comments.
0 reply
King Baby Duck 20 Aug 13, 2007 08:50 AM

Great tab, only thing missed is on the 4-2-0 it should be a pull off so it is:

4-2p0.

Otherwise, extremely good job.

0 reply
AFP520 10 Mar 29, 2008 08:50 AM

I agree with Baby Duck. I would also change the last part to:

----5--
---5---
--3----

+1 reply
Little Dell 10 Apr 14, 2008 03:41 AM

It's alot easier to just play:
e---------------------------------
B--4--2---------------------------
G--------4--2---------------------
D--------------4--2p0-----5-----5-
A------------------------5-----5--
D-----------------------5-----5---

For the intro. Alot of the Foo Fighters' songs are in Drop D anyways.

guest
Wanna post a correction for this tab? Suggest correction