Oops, an error
Loading. Please wait.
We have Chord Pro version of Run.
It's the closest thing you can get to the original song and it has interactive parts. Check out the tab »
×
4,459 views 339 this week
1 commentread comment
1 2 3 4 5
x 16
add to favorites
×
Save as Personal and add changes to this tab that will be seen only by you. Learn more ›
×
You can save this tab as Personal to edit and correct it or add notes. All changes will be seen only by you. Learn more »
launch autoscroll
font size
0
reset
guitar tuner
backing track
0:00
0:00
edit
Autoscroll
slow
fast
+/-
esc
set tempo
stop
About this tab version
First bass tab of this song. Was this info helpful? Yes No
[Intro]
G|--------------------------------------------------|
D|--5/10--9--7~--------------5~---------------------|
A|----------------7~--5~-------------7~--5~--7-5----|
E|------------------------------5~---------------5--|

G|------------------------------------------|
D|--5~--7~-----------5~---------------------|
A|----------7~--5~-----------7~--5~--7-5----|
E|-----------------------5~--------------5--|

G|--------------------------|
D|--5~--7~------------------|
A|----------7~--5~----------|
E|-------------------3~--5~-|

[Verse]
G|-------------------------------------------------|
D|-------------------------------------------------|
A|-------------------------------------------------|
E|-12\--1p0--0-0-0--1p-0-0-0--1p0-0-0-0--1p-0-0-0--|

G|---------------------------------------------|
D|---------------------------------------------|
A|---------------------------------------------|      (x8)
E|--1p0--0-0-0--1p-0-0-0--1p0-0-0-0--1p-0-0-0--|

G|----------------------------------------------------------------------|
D|----------------------------------------------------------------------|
A|---------------------------------------------3-3-3-3-3-3---------5-5--|  (x2)   
E|--1p0--0-0-0--1p-0-0-0--1p0-0-0-0--1p-0-0-0--------------3-3-3-3------|

[Chorus]
G|-----------------------------|
D|-----------------------------|
A|-----------------------------|
E|--0~--3~--5~--8~--5~--8~--0~-|

G|--------------------------------------------------------|
D|--------------------------------------------------------|
A|-3-3-3\-----------------5~---3-3-3\-----------------5~--|
E|----------5-5-5\--0-0-0---------------5-5-5\--0-0-0-----|

G|---------------------------------------------------------------------------------------------------|
D|---------------------------------------------------------------------------------------------------|
A|-3-3-3--7-5-3-------------------------2----5~----3-3-3--7-5-3----------------7-7-5-7-7-5-7-7-5-7/\-|
E|---------------5-5-5--3-5-3--0-0-0--3---3----------------------5-5-5--3-5-3------------------------|

[Verse]
G|-------------------------------------------------|
D|-------------------------------------------------|
A|-------------------------------------------------|
E|-12\--1p0--0-0-0--1p-0-0-0--1p0-0-0-0--1p-0-0-0--|

G|---------------------------------------------|
D|---------------------------------------------|
A|---------------------------------------------|      (x2)
E|--1p0--0-0-0--1p-0-0-0--1p0-0-0-0--1p-0-0-0--|

G|----------------------------------------------------------------------|
D|----------------------------------------------------------------------|
A|---------------------------------------------3-3-3-3-3-3---------5-5--|  (x2)    
E|--1p0--0-0-0--1p-0-0-0--1p0-0-0-0--1p-0-0-0--------------3-3-3-3------|

[Chorus]
G|-----------------------------|
D|-----------------------------|
A|-----------------------------|
E|--0~--3~--5~--8~--5~--8~--0~-|

G|--------------------------------------------------------|
D|--------------------------------------------------------|
A|-3-3-3\-----------------5~---3-3-3\-----------------5~--|
E|----------5-5-5\--0-0-0---------------5-5-5\--0-0-0-----|

G|---------------------------------------------------------------------------------------------|
D|---------------------------------------------------------------------------------------------|
A|-3-3-3--7-5-3-------------------------2----5~----3-3-3--7-5-3-------------------------2----5~|
E|---------------5-5-5--3-5-3--0-0-0--3---3----------------------5-5-5--3-5-3--0-0-0--3---3----|

G|-----------------------------------------------------------------------------------------------------|
D|---------------------------------------------------------------------------------------------7-------|
A|-3-3-3--7-5-3-------------------------2----5~----3-3-3--7-5-3----------------(-7-7-5-)(x5)-7---7-5/\-|
E|---------------5-5-5--3-5-3--0-0-0--3---3----------------------5-5-5--3-5-3--------------------------|

[Solo]
G|----------------------------------------------------------|
D|----------------------------------------------------------|
A|---------------------------5-5-5-0-0-0-0-0-0-------3-3-3--|
E|-12\--0-0-0-0-0-0--2-3-3-3-------------------1-1-1--------|

G|----------------------------------------------------|
D|----------------------------------------------------|
A|----------------------5-5-5-0-0-0-0-0-0-0-0-0-0-0-0-|
E|-0-0-0-0-0-0--2-3-3-3-------------------------------|

[Chorus]
G|-------------------------------------------------------------------------------------|
D|-------------------------------------------------------------------------------------|
A|-2-3-3-3-2-2-5-5-5-5-0-0-0-0-0-0-12-12-12-12---2-3-3-3-2-2-5-5-5-5-0-0-0-0-0-0-0-0-0-|
E|-------------------------------------------------------------------------------------|

G|---------------------------------------------------------------------------------------------|
D|---------------------------------------------------------------------------------------------|
A|-3-3-3--7-5-3-------------------------2----5~----3-3-3--7-5-3-------------------------2----5~|
E|---------------5-5-5--3-5-3--0-0-0--3---3----------------------5-5-5--3-5-3--0-0-0--3---3----|

G|-----------------------------------------------------------------------------------------------------------|
D|--------------------------------------------------------------------------------------------7-------7------|
A|-3-3-3--7-5-3-------------------------2----5~---3-3-3--7-5-3----------------(-7-7-5-)(x5)-7---7-5-7---7-5/\|
E|---------------5-5-5--3-5-3--0-0-0--3---3---------------------5-5-5--3-5-3---------------------------------|

G|--------------------------------------------------------------------------------------------------------|
D|------------------------------------------------n5h-----------------------------------------------------|
A|--------------------------------------------------------------------------------------------------------|
E|-12\--1p0--0-0-0--1p-0-0-0--1p0-0-0-0--1p-0-0-0------12\--1p0--0-0-0--1p-0-0-0--1p0-0-0-0--1p-0-0-0-12\-|

G|-----------------------------------------------------------------------------------------------------------|
D|------------------------------------------------n7h--------------------------------------------------------|
A|---------------------------------------------------------------------------------------------------7-7-5-7\|
E|-12\--1p0--0-0-0--1p-0-0-0--1p0-0-0-0--1p-0-0-0------12\-1p0--0-0-0--1p-0-0-0--1p0-0-0-0--1p-0-0-0---------|


************************************

| nxh Natural Harmonic
| p   Pull-off
| /   Slide up
| \   Slide down
| ~   Vibrato

************************************

            
            
Suggest correction
Creating personal tab
Creating personal tab
You can edit any tab online and save it as your Personal.

You can edit, replace or remove any tab part or add personal notes – all changes will be seen only by you.

Personal tabs can be accessed anytime from any device, even offline.
Learn more »
comments
print report bad tab
1 comment total.
+2 reply
intention_craft 53 Jun 08, 2017 12:44 PM

Excellent tab, great work

guest
You may want to rate the tab now too:
select rating
Wanna post a correction for this tab? Suggest correction