Oops, an error
Loading. Please wait.
We have Chord Pro version of Run.
It's the closest thing you can get to the original song and it has interactive parts. Check out the tab »
×

Run tab

version 1
version 1

Whole song

  • This tab covers every part of the song for one gui... Show more
  • More detailed with all the lead guitar tabbed.
  • 100% right with the song.

Interactive

Video

  • In this tutorial I will teach you the main rhythm ... Show more
8,107 views 249 this week
2 commentsread comments
1 2 3 4 5
x 8
add to favorites
×
Save as Personal and add changes to this tab that will be seen only by you. Learn more ›
×
You can save this tab as Personal to edit and correct it or add notes. All changes will be seen only by you. Learn more »
launch autoscroll
font size
0
reset
how to read this tab
guitar tuner
backing track
0:00
0:00
edit
Autoscroll
slow
fast
+/-
esc
set tempo
stop
About this tab version
This tab covers every part of the song for one guitar. If there's something missing, you can figure it out yourself like the power chords behind the pre chorus and other parts easily. Was this info helpful? Yes No
[Intro] [Capo 7th Fret] 
e|--------3------------3------------3------------3---------------------|
B|------1---1--------1---1--------1---1--------0----0------------------|
G|----2-------2----2-------2----2-------2----0--------0----------------|
D|--3------------0-----------------------------------------------------| X8
A|----------------------------0----------------------------------------|
E|------------------------------------------3--------------------------|

[No Capo after the Intro]

[Verse]
e|------------|
B|------------|
G|------------|
D|------------|
A|------------|
E|-1p0-0-0-0--|


e|-------------------------------------------------------------------------------------|
B|--5--5--5--5--5--5----3--3--3--8----8------------------------------------------------|
G|--7b-7b-7b-7b-7b-7b--5b-5b-5b--10b--10b----------------------------------------------| x2
D|-------------------------------------------------------------------------------------|
A|-------------------------------------------------------------------------------------|
E|------------------------------------------1p0-0-0-0--1p0-0-0-0--1p0-0-0-0--1p0-0-0-0-|

[Pre Chorus]
Before the time runs out. . 
e|----------------------|
B|----------------------|
G|--9--7--6--5--2--3~--4|
D|----------------------|
A|--7--5--4--3--0------2|
E|----------------------|

[Chorus]
e|-----------------------------------------------|
B|---------------------------------------------3-|
G|---------------------------------------------2-|
D|-5-5-5--2--0----2-2-2------------------------0-| X4
A|-3-3-3-------3--0-0-0----0----2-2-2----2-----0-|
E|-----------------------3---3--0-0-0--3---3-----|


e|---------------------------------------------------|
B|---------------------------------------------------|
G|---------------------------------------------------|
D|-5-5-5--2--0----2-2-2----------2-2-0-2-2-0-2-2-0-2~|
A|-3-3-3-------3--0-0-0----0-------------------------|
E|-----------------------3---3-----------------------|

[Solo]
e|-------------------------------------------------------------------------------|
B|----12----12----12-----10---------15--------14---14----14----13----15----------|
G|-------------------------------------------------------------------------------|
D|-14----14----14-----12----12---17----17---14---14---14----15----17----17-------|
A|-------------------------------------------------------------------------------|
E|-------------------------------------------------------------------------------|

e|-------------------------------------------------------------------------------|
B|----12----12----12-----10---------15--------14---14----12----10----10----------|
G|-------------------------------------------------------------------------------|
D|-14----14----14-----12----12---17----17---14---14---12----11----11-------------|
A|-------------------------------------------------------------------------------|
E|-------------------------------------------------------------------------------|

Wake up. . . 
e|-------------|
B|--9--9--9--7-|
G|-------------|
D|--7--7--7--5-| x16
A|-------------|
E|-------------|

[Repeat Chorus]



************************************

| p  Pull-off
| b  Bend
| ~  Vibrato
 

************************************
Suggest correction
Creating personal tab
Creating personal tab
You can edit any tab online and save it as your Personal.

You can edit, replace or remove any tab part or add personal notes – all changes will be seen only by you.

Personal tabs can be accessed anytime from any device, even offline.
Learn more »
comments
print report bad tab
2 comments total.
0 reply
sagibotnim 10 Jun 03, 2017 01:27 AM

great tabs!

btw the solo remind me of the intro of iron Maiden dance of Death

guest
You may want to rate the tab now too:
select rating
Wanna post a correction for this tab? Suggest correction