Oops, an error
Loading. Please wait.
We have Chord Pro version of Run.
It's the closest thing you can get to the original song and it has interactive parts. Check out the tab »
×

Run chords

version 2
version 2

Whole song

Interactive

Video

  • In this tutorial I will teach you the main rhythm ... Show more
1,375 views 48 this week
no commentswrite comment
1 2 3 4 5
2 more votes to show rating
add to favorites
×
Save as Personal and add changes to this tab that will be seen only by you. Learn more ›
×
You can save this tab as Personal to edit and correct it or add notes. All changes will be seen only by you. Learn more »
launch autoscroll
font size
0
reset
transpose
0
reset
display chords
guitar tuner
backing track
0:00
0:00
edit
Autoscroll
slow
fast
+/-
esc
set tempo
stop
Strumming
There is no strumming pattern for this song yet. and get +5 IQ
[Intro]
C Am Em D
C D Am Em

G     Am
Wake up 
 Em                    D
Run for your life with me
G     Am  
Wake up
Em                      D
Run for your life with me
C  Am        Em      D
In another perfect life
C  Am         Em    D
In another perfect light
C   Am
We run
C   Am
We run
C  Am         E 
We run

[Verse 1]
[Riff]
|-------------------------------------------|
|-------------------------------------------|
|-------------------------------------------|
|-------------------------------------------|
|-------------------------------------------|
|0/1--0--0-------0/1--0--0-------0/1--0--0--|
We are the nation's stakes
If everything's erased
What you gonna' do?
I need some room to breathe
You can run with me
If you wanted to

C G D E

[Riff]
|-------------------------------------------|
|-------------------------------------------|
|-------------------------------------------|
|-------------------------------------------|
|-------------------------------------------|
|0/1--0--0-------0/1--0--0-------0/1--0--0--|
Yeah you can run with me
If you wanted to

C G D E

[Chorus]
Em     G        A  C   
Before the time runs out
.Am     C              E
There's somewhere to run
C    Am
Wake up
Em                     D  
Run for your life with me
C    Am
Wake up
Em                     D  
Run for your life with me
C     Am    Em  G    D
In another perfect life
C     Am    Em  G    G
In another perfect light
C   Am
We run
C   Am
We run
C  Am         E 
We run
Run !

[Chorus]
Em     G        A  C   
Before the time runs out
.Am     C              E
There's somewhere to run
C    Am
Wake up
Em                     D  
Run for your life with me
C    Am
Wake up
Em                     D  
Run for your life with me
C     Am    Em  G    D
In another perfect life
C     Am    Em  G    G
In another perfect light
C   Am
We run
C   Am
We run
C  Am         E 
We run

[Riff]
|-------------------------------------------|
|-------------------------------------------|
|-------------------------------------------|
|-------------------------------------------|
|-------------------------------------------|
|0/1--0--0-------0/1--0--0-------0/1--0--0--|
Run!

[Chorus]
Em     G        A  C   
Before the time runs out
Am     C              E
There's somewhere to run
C    Am
Wake up
Em                     D  
Run for your life with me
C    Am
Wake up
Em                     D  
Run for your life with me
C     Am    Em  G    D
In another perfect life
C     Am    Em  G    G
In another perfect light
C   Am
We run
C   Am
We run
C  Am         E 
We run

[Riff]
|-------------------------------------------|
|-------------------------------------------|
|-------------------------------------------|
|-------------------------------------------|
|-------------------------------------------|
|0/1--0--0-------0/1--0--0-------0/1--0--0--|
Run!
Suggest correction
Creating personal tab
Creating personal tab
You can edit any tab online and save it as your Personal.

You can edit, replace or remove any tab part or add personal notes – all changes will be seen only by you.

Personal tabs can be accessed anytime from any device, even offline.
Learn more »
Give kudos to tab author, rate the tab!
1 2 3 4 5
comments
print report bad tab
guest
You may want to rate the tab now too:
select rating
Wanna post a correction for this tab? Suggest correction