Oops, an error
Loading. Please wait.
We have Chord Pro version of Run.
It's the closest thing you can get to the original song and it has interactive parts. Check out the tab »
×

Run tab

version 2
version 2

Whole song

  • This tab covers every part of the song for one gui... Show more
  • More detailed with all the lead guitar tabbed.
  • 100% right with the song.

Interactive

Video

  • In this tutorial I will teach you the main rhythm ... Show more
31,180 views 1,521 this week
3 commentsread comments
1 2 3 4 5
x 32
add to favorites
×
Save as Personal and add changes to this tab that will be seen only by you. Learn more ›
×
You can save this tab as Personal to edit and correct it or add notes. All changes will be seen only by you. Learn more »
launch autoscroll
font size
0
reset
how to read this tab
guitar tuner
backing track
0:00
0:00
edit
Autoscroll
slow
fast
+/-
esc
set tempo
stop
Tabbed by: Blameshift
Tuning: E-standard



Intro - "Wake up..." - 0:00
    C               Am              Em             D
|---------10--------------10-------------10-------------10--------|
|-------8----8----------8----8---------8----8---------7----7-8----|
|-----9--------9------9--------9-----9--------9-----7-------------|
|-------------------------------------------------0---------------|
|------------------0----------------------------------------------|
|--8-------------------------------0------------------------------|
 

Verse part 1 - 0:52
|-----------------------------------------------------------------|
|-----------------------------------------------------------------|
|-----------------------------------------------------------------|  
|-----------------------------------------------------------------|
|-----------------------------------------------------------------|
|-1p0--00-0--1p0--00-0--1p0--00-0--1p0--00-0----------------------|

  "You can run with me, If you wanted to" - 1:30
|-----------------------------------------------------------------|
|-----------------------------------------------------------------|
|-----------------------------------------------------------------|  
|-----------------------------------------------------------------|
|-----------------------------------------------------------------|
|-1p0--00-0--1p0--00-0--1p0--00-0--1p0--00-0----------------------|

Verse part 2 - after "You can run with me, If you wanted to" - 1:35 
|Guitar 1
||----------------------------------------------------------------||
|o----------------------------------------------------------------o|
||--9---9----9----9------9-------7-----7----7-----12------12------||
||----------------------------------------------------------------||
|o--7---7----7----7------7-------5-----5----5-----10------10------o|
||----------------------------------------------------------------||
|
|Guitar 2
||----------------------------------------------------------------||
|o--5----5----5----5------5------3-----3-----3-----8-------8------o|
||--7b9--7b9--7b9--7b9~---7b9----5b7---5b7---5b7---10b12---10b12~-||
||----------------------------------------------------------------||
|o----------------------------------------------------------------o|
||----------------------------------------------------------------||
 
Verse part 1 again - "You can run with me, If you wanted to" - 1:38
|-----------------------------------------------------------------|
|-----------------------------------------------------------------|
|-----------------------------------------------------------------|  
|-----------------------------------------------------------------|
|-----------------------------------------------------------------|
|-1p0--00-0--1p0--00-0--1p0--00-0--1p0--00-0----------------------|


Verse part 2 - 1:41
|Guitar 1
||----------------------------------------------------------------||
|o----------------------------------------------------------------o|
||--9---9----9----9------9-------7-----7----7-----12------12------||
||----------------------------------------------------------------||
|o--7---7----7----7------7-------5-----5----5-----10------10------o|
||----------------------------------------------------------------||
|
|Guitar 2
||----------------------------------------------------------------||
|o--5----5----5----5------5------3-----3-----3-----8-------8------o|
||--7b9--7b9--7b9--7b9~---7b9----5b7---5b7---5b7---10b12---10b12~-||
||----------------------------------------------------------------||
|o----------------------------------------------------------------o|
||----------------------------------------------------------------||



Pre-chorus - "Before the time runs out..." - 1:46
|Guitar 1
||----------------------------------------------------------------||
|o----------------------------------------------------------------o|
||----------------------------3-----------------------------------||
||---5----4----2----2----2---------2~-----------------------------||
|o---7----5----4----3----0----1----2~-----------------------------o|
||---------------------------------0~-----------------------------||
|
|Guitar 2
||----------------------------------------------------------------||
|o----------------------------------------------------------------o|
||---9----7----6----5----2----3-----------------------------------||
||---------------------------------2~-----------------------------||
|o---7----5----4----3----0----1----2~-----------------------------o|
||---------------------------------0~-----------------------------||



Chorus - "Wake up... run for your life with me" x2 - 2:00
|Guitar 1
||----------------------------------------------------------------||
|o--------------------------------------------------------3-------o|
||--5--5--5-----------------------------------------------2-------||
||--5--5--5----------7--7--7-----------2--2--2------------0-------||
|o--3--3--3--7--5----7--7--7-----------2--2--2-----2------0-------o|
||----------------8--5--5--5--3--5--3--0--0--0--3-----3-----------||
|   ^  ^  ^          ^  ^  ^           ^  ^  ^             
|Guitar 2
||----------------------------------------------------------------||
|o--------------------------------------------------------3-------o|
||--5--5--5-----------------------------------------------2-------||
||--5--5--5----------7--7--7-----------2--2--2------------0-------||
|o--3--3--3----------7--7--7-----------2--2--2------------0-------o|
||-------------------5--5--5-----------0--0--0--------------------||
|   ^  ^  ^          ^  ^  ^           ^  ^  ^             
Chorus part 2 - "In another perfect life... we run" x3 - 2:14
|-----------------------------------------------------------------|
|--------------------------------------------------------3--------|
|--5--5--5-----------------------------------------------2--------|
|--5--5--5----------7--7--7-----------2--2--2------------0--------|
|--3--3--3--7--5----7--7--7-----------2--2--2-----2------0--------|
|----------------8--5--5--5--3--5--3--0--0--0--3-----3------------|

|-----------------------------------------------------------------|
|-----------------------------------------------------------------|
|--5--5--5--------------------------------------------------------|
|--5--5--5----------7--7--7-----------9-9--7---9-9--7---9-9--7--9-|
|--3--3--3--7--5----7--7--7-----------7-7--5---7-7--5---7-7--5--7-|
|----------------8--5--5--5--3--5--3------------------------------|



Verse 2 - "We are the nation's stakes" - 2:41
|-----------------------------------------------------------------|
|-----------------------------------------------------------------|
|-----------------------------------------------------------------|  
|-----------------------------------------------------------------|
|-----------------------------------------------------------------|
|-1p0--00-0--1p0--00-0--1p0--00-0--1p0--00-0----------------------|

  "You can run with me, If you wanted to" - 2:52
|-----------------------------------------------------------------|
|-----------------------------------------------------------------|
|-----------------------------------------------------------------|  
|-----------------------------------------------------------------|
|-----------------------------------------------------------------|
|-1p0--00-0--1p0--00-0--1p0--00-0--1p0--00-0----------------------|

Verse 2 part 2 - after "You can run with me, If you wanted to" - 2:56
|-----------------------------------------------------------------|
|-----------------------------------------------------------------|
|--9---9----9----9------9-------7-----7----7-----12------12-------|
|-----------------------------------------------------------------|
|--7---7----7----7------7-------5-----5----5-----10------10-------|
|-----------------------------------------------------------------|

|-----------------------------------------------------------------|
|--5----5----5----5------5------3-----3-----3-----8-------8-------|
|--7b9--7b9--7b9--7b9~---7b9----5b7---5b7---5b7---10b12---10b12~--|
|-----------------------------------------------------------------|
|-----------------------------------------------------------------|
|-----------------------------------------------------------------|
 
Verse part 1 again - "You can run with me, If you wanted to" - 3:00
|-----------------------------------------------------------------|
|-----------------------------------------------------------------|
|-----------------------------------------------------------------|  
|-----------------------------------------------------------------|
|-----------------------------------------------------------------|
|-1p0--00-0--1p0--00-0--1p0--00-0--1p0--00-0----------------------|


Verse part 2 - 3:03
|Guitar 1
||----------------------------------------------------------------||
|o----------------------------------------------------------------o|
||--9---9----9----9------9-------7-----7----7-----12------12------||
||----------------------------------------------------------------||
|o--7---7----7----7------7-------5-----5----5-----10------10------o|
||----------------------------------------------------------------||
|
|Guitar 2
||----------------------------------------------------------------||
|o--5----5----5----5------5------3-----3-----3-----8-------8------o|
||--7b9--7b9--7b9--7b9~---7b9----5b7---5b7---5b7---10b12---10b12~-||
||----------------------------------------------------------------||
|o----------------------------------------------------------------o|
||----------------------------------------------------------------||



Pre-chorus - "Before the time runs out..." - 3:06
|Guitar 1
||----------------------------------------------------------------||
|o----------------------------------------------------------------o|
||----------------------------3-----------------------------------||
||---5----4----2----2----2---------2~-----------------------------||
|o---7----5----4----3----0----1----2~-----------------------------o|
||---------------------------------0~-----------------------------||
|
|Guitar 2
||----------------------------------------------------------------||
|o----------------------------------------------------------------o|
||---9----7----6----5----2----3-----------------------------------||
||---------------------------------2~-----------------------------||
|o---7----5----4----3----0----1----2~-----------------------------o|
||---------------------------------0~-----------------------------||



Chorus - "Wake up... run for your life with me" x2 - 3:20
|Guitar 1
||----------------------------------------------------------------||
|o--------------------------------------------------------3-------o|
||--5--5--5-----------------------------------------------2-------||
||--5--5--5----------7--7--7-----------2--2--2------------0-------||
|o--3--3--3--7--5----7--7--7-----------2--2--2-----2------0-------o|
||----------------8--5--5--5--3--5--3--0--0--0--3-----3-----------||
|   ^  ^  ^          ^  ^  ^           ^  ^  ^             
|Guitar 2
||----------------------------------------------------------------||
|o--------------------------------------------------------3-------o|
||--5--5--5-----------------------------------------------2-------||
||--5--5--5----------7--7--7-----------2--2--2------------0-------||
|o--3--3--3----------7--7--7-----------2--2--2------------0-------o|
||-------------------5--5--5-----------0--0--0--------------------||
|   ^  ^  ^          ^  ^  ^           ^  ^  ^             
Chorus part 2 - "In another perfect life... we run" x3 - 2:14
|-----------------------------------------------------------------|
|--------------------------------------------------------3--------|
|--5--5--5-----------------------------------------------2--------|
|--5--5--5----------7--7--7-----------2--2--2------------0--------|
|--3--3--3--7--5----7--7--7-----------2--2--2-----2------0--------|
|----------------8--5--5--5--3--5--3--0--0--0--3-----3------------|

|-----------------------------------------------------------------|
|-----------------------------------------------------------------|
|--5--5--5--------------------------------------------------------|
|--5--5--5----------7--7--7-----------9-9--7---9-9--7---9-9--7----|
|--3--3--3--7--5----7--7--7-----------7-7--5---7-7--5---7-7--5----|
|----------------8--5--5--5--3--5--3------------------------------|

|-----------------------------------------------------------------|
|-----------------------------------------------------------------|
|-----------------------------------------------------------------|
|--9-9--7---9-9--7---9-9--7--9-12-7-9-----------------------------|
|--7-7--5---7-7--5---7-7--5--7-10-5-7-----------------------------|
|-----------------------------------------------------------------|




Solo - 4:06
|Guitar 1
||---------------------------------------------------10-----------||
|o----12-------12-------12-----------10---------------------------o|
||---------------------------------------------/12--------12------||
||-14------14-------14---------/12-------12-----------------------||
|o----------------------------------------------------------------o|
||----------------------------------------------------------------||
|
|Guitar 2
||----------------------------------------------------------------||
|o----------------------------------------------------------------o|
||--9--9--9--9--9--9--9--9----7--7--7--7--7----12--12--12--12-----||
||----------------------------------------------------------------||
|o--7--7--7--7--7--7--7--7----5--5--5--5--5----10--10--10--10-----o|
||----------------------------------------------------------------||

|Guitar 1
||-------9------9------9---------8---------------10---------------||
|o----------------------------------------------------------------o|
||--/9------9------9------/10-------10-----/12---------12---------||
||----------------------------------------------------------------||
|o----------------------------------------------------------------o|
||----------------------------------------------------------------||
|
|Guitar 2
||----------------------------------------------------------------||
|o----------------------------------------------------------------o|
||--6--6--6--6--6--6----10-10-10-10-10-10-------------------------||
||------------------------------------------10-10-10-10-10-10-10--||
|o--4--4--4--4--4--4----8--8--8--8--8--8--------------------------o|
||------------------------------------------8--8--8--8--8--8--8---||


|Guitar 1
||---------------------------------------------------10-----------||
|o----12-------12-------12-----------10---------------------------o|
||---------------------------------------------/12--------12------||
||-14------14-------14---------/12-------12-----------------------||
|o----------------------------------------------------------------o|
||----------------------------------------------------------------||
|
|Guitar 2
||----------------------------------------------------------------||
|o----------------------------------------------------------------o|
||--9--9--9--9--9--9--9--9----7--7--7--7--7----12--12--12--12-----||
||----------------------------------------------------------------||
|o--7--7--7--7--7--7--7--7----5--5--5--5--5----10--10--10--10-----o|
||----------------------------------------------------------------||

|Guitar 1
||-------9------9--------7----------5---------3-------2-----------||
|o----------------------------------------------------------------o|
||--/9------9-------7---------5---------4---------2---------------||
||----------------------------------------------------------------||
|o----------------------------------------------------------------o|
||----------------------------------------------------------------||
|
|Guitar 2
||----------------------------------------------------------------||
|o----------------------------------------------------------------o|
||--6--6--6--6--6--6--6--6--6--6--6--6--6--6--6--6--6--6--6-------||
||----------------------------------------------------------------||
|o--4--4--4--4--4--4--4--4--4--4--4--4--4--4--4--4--4--4--4-------o|
||----------------------------------------------------------------||



Chorus 3 - "Wake up....Run for your life with me" x2 - 4:20
|-----------------------------------------------------------------|
|-----------------------------------------------------------------|
|--12-12-12-11-11-11-9-9-9-7-7-7-------7-7-7-6-6-6-6-6-6-6-6------|
|--------------------------------7-7-7----------------------------|
|--10-10-10-9--9--9--7-7-7-5-5-5-------5-5-5-4-4-4-4-4-4-4-4------|
|--------------------------------5-5-5----------------------------|

Chorus part 2 - "In another perfect life... we run" x3 - 4:34
|-----------------------------------------------------------------|
|--------------------------------------------------------3--------|
|--5--5--5-----------------------------------------------2--------|
|--5--5--5----------7--7--7-----------2--2--2------------0--------|
|--3--3--3--7--5----7--7--7-----------2--2--2-----2------0--------|
|----------------8--5--5--5--3--5--3--0--0--0--3-----3------------|


|-----------------------------------------------------------------|
|-----------------------------------------------------------------|
|--5--5--5--------------------------------------------------------|
|--5--5--5----------7--7--7-----------9-9--7---9-9--7---9-9--7----|
|--3--3--3--7--5----7--7--7-----------7-7--5---7-7--5---7-7--5----|
|----------------8--5--5--5--3--5--3------------------------------|


|-----------------------------------------------------------------|
|-----------------------------------------------------------------|
|-----------------------------------------------------------------|
|--9-9--7---9-12--9---7-9--12--9-7--9-9---------------------------|
|--7-7--5---7-10--7---5-7--10--7-5--7-7---------------------------|
|-----------------------------------------------------------------|


Outro - 5:05
|----------------------------------------<>5----------------------|
|----------------------------------------<>5----------------------|
|----------------------------------------<>5----------------------|  
|----------------------------------------<>5----------------------|
|-----------------------------------------------------------------|
|-1p0--00-0--1p0--00-0--1p0--00-0--1p0----------------------------|

|-----------------------------------------------------------------|
|-----------------------------------------------------------------|
|-----------------------------------------------------------------|  
|-----------------------------------------------------------------|
|-----------------------------------------------------------------|
|-1p0--00-0--1p0--00-0--1p0--00-0--1p0--\\\\\\\\\\\---------------|

|----------------------------------------<>5----------------------|
|----------------------------------------<>5----------------------|
|----------------------------------------<>5----------------------|  
|----------------------------------------<>5----------------------|
|-----------------------------------------------------------------|
|-1p0--00-0--1p0--00-0--1p0--00-0--1p0----------------------------|

|-----------------------------------------------------------------|
|-----------------------------------------------------------------|
|-----------------------------------------------------------------|  
|----------------------------9-9--7--9~----\\---------------------|
|----------------------------7-7--5--7~-----\\--------------------|
|-1p0--00-0--1p0--00-0--------------------------------------------|


| /  slide up
| \  slide down
| h  hammer-on
| p  pull-off
| ~  vibrato
| +  harmonic
| x  Mute note
| ^  Do not let ring out
| <> Artificial Harmonic - hold a finger very lightly over a string to make an octave/high pitch note.



Suggest correction
Creating personal tab
Creating personal tab
You can edit any tab online and save it as your Personal.

You can edit, replace or remove any tab part or add personal notes – all changes will be seen only by you.

Personal tabs can be accessed anytime from any device, even offline.
Learn more »
comments
print report bad tab
3 comments total.
+5 reply
Bullet_Fan 70 Jun 03, 2017 12:38 PM

Great Tab :-)

0 reply
marpiuze1 10 Jun 05, 2017 09:26 PM

very nice. The chorus part 2 work
very good also in AC/DC style...

0 reply
dkindy6161611 10 Jul 24, 2017 04:46 PM

That looks spot on when you read it to the music! I'll be learning this one for sure!

guest
You may want to rate the tab now too:
select rating
Wanna post a correction for this tab? Suggest correction