Oops, an error
Loading. Please wait.
We have Chord Pro version of Run.
It's the closest thing you can get to the original song and it has interactive parts. Check out the tab »
×

Run tab

version 3
version 3

Whole song

  • This tab covers every part of the song for one gui... Show more
  • More detailed with all the lead guitar tabbed.
  • 100% right with the song.

Interactive

Video

  • In this tutorial I will teach you the main rhythm ... Show more
2,890 views 54 this week
2 commentsread comments
1 2 3 4 5
x 6
add to favorites
×
Save as Personal and add changes to this tab that will be seen only by you. Learn more ›
×
You can save this tab as Personal to edit and correct it or add notes. All changes will be seen only by you. Learn more »
launch autoscroll
font size
0
reset
how to read this tab
guitar tuner
backing track
0:00
0:00
edit
Autoscroll
slow
fast
+/-
esc
set tempo
stop
About this tab version
More detailed with all the lead guitar tabbed. Was this info helpful? Yes No
Foo Fighters - Run

[Intro]

Rhythm

E|-----------------------------------------------0--------|
B|--------0------------0------------0----------3---3------|
G|------0---0--------0---0--------0---0------2-------2----| x7
D|----2-------2----0-------0----2-------2--0-----------0--|
A|--3------------2------------2---------------------------|
E|---------------3------------0---------------------------|

E|----------------------------|
B|--------0------------0------|
G|------0---0--------0---0----|
D|----2-------2----0-------0--|
A|--3------------2------------|
E|---------------3------------|

Lead

E|---------10------------10------------10-------------10------|
B|-------8----8--------8----8------8------8------7-------7----|
G|-----9--------9----9--------9--9---9------9--7---7-------7--| x7
D|--10-------------7------------------------------------------| 
A|------------------------------------------------------------|
E|------------------------------------------------------------|

E|---------10------------10------|
B|-------8----8--------8----8----|
G|-----9--------9----9--------9--|
D|--10-------------7-------------|
A|-------------------------------|
E|-------------------------------|

[Verse]

Rhythm

E|------------------------------------------------------|
B|------------------------------------------------------|
G|------------------------------------------------------| x12
D|------------------------------------------------------|  
A|-------2-2--2-------2-2--2-------2-2--2-------2-2--2--|
E|--1p0--0-0--0--1p0--0-0--0--1p0--0-0--0--1p0--0-0--0--|

E|----------------------------------------------------------------------|
B|----------------------------------------------------------------------|
G|----------------------------------------------------------------------| x2
D|--10---7----12--------------------------------------------------------| 
A|--10---7----12--------------------------------------------------------|
E|--8----5----10----1p0--0-0--0--1p0--0-0--0--1p0--0-0--0--1p0--0-0--0--|

Lead

E|------------------------------------------------------|
B|------------------------------------------------------|
G|------------------------------------------------------| x8
D|------------------------------------------------------|  
A|-------2-2--2-------2-2--2-------2-2--2-------2-2--2--|
E|--1p0--0-0--0--1p0--0-0--0--1p0--0-0--0--1p0--0-0--0--|

E|--12----12----12----12----12----12----12----12-----|
B|--12----12----12----12----12----12----12----12-----|
G|--14b16-14b16-14b16-14b16-14b16-14b16-14b16-14b16--| x4
D|---------------------------------------------------|
A|---------------------------------------------------|
E|---------------------------------------------------|

E|----------------------------------------------------------------------------|
B|--5---------8-----8---------------------------------------------------------|
G|--7b9----9--10b12-10b12-----------------------------------------------------| 
D|----------------------------------------------------------------------------| 
A|-----------------------------2-2--2-------2-2--2-------2-2--2-------2-2--2--|
E|------------------------1p0--0-0--0--1p0--0-0--0--1p0--0-0--0--1p0--0-0--0--|

E|-----------------------------|
B|--5---------8-----8----------|
G|--7b9----9--10b12-10b12--9~--|
D|-----------------------------|
A|-----------------------------|
E|-----------------------------|

[Chorus]

Rhythm

E|--0----3----0-----0----0----0----0----0----|
B|--0----3----2-----1----0----1----0----0----|
G|--0----0----2-----0----2----3----0----0----|
D|--2----0----2-----2----2----2----2----2----|
A|--2----2----0-----3----0----3----2----2----|
E|--0----3-------------------------0----0----|

E|-----------------------------0-------------------------------0----|
B|-----------------------------3-------------------------------3----|
G|-----------------------------2-------------------------------2----|
D|--5-5-5----2-2-2----2-2-2----0----5-5-5----2-2-2----2-2-2----0----| 
A|--3-3-3----0-0-0----2-2-2---------3-3-3----0-0-0----2-2-2---------|
E|--------------------0-0-0---------------------------0-0-0---------|

E|--------------------------------------------0----|
B|--------------------------------------------3----|
G|--------------------------------------------2----|
D|--5-5-5--7-5-3--2-2-2---------2-2-2---------0----| x3
A|--3-3-3---------0-0-0----0----2-2-2----2---------|
E|----------------------3b---3--0-0-0--3---3-------|

E|-----------------------------------------------------------------|
B|-----------------------------------------------------------------|
G|-----------------------------------------------------------------|
D|--5-5-5--7-5-3--2-2-2---------9--9-9-7--9--9-9-7--9--9-9--7-9----|
A|--3-3-3---------0-0-0----0----7--7-7-5--7--7-7-5--7--7-7--5-7----|
E|----------------------3b---3--0--0-0----0--0-0----0--0-0----0----|

Lead

E|-------------------------------------------------------------------0-------------0----0----|
B|----0---0---0---0---0---0---0---0---0---0---0---0---0---0---0---0--0----11-------0----0----|
G|--9---9---9---9---7---7---7---7---6---6---6---6---5---5---5---5----2----14b15----9----9----|
D|---------------------------------------------------------------------------------9----9----|
A|---------------------------------------------------------------------------------7----7----|
E|---------------------------------------------------------------------------------0----0----|

E|--------------------------------------------0----|
B|--------------------------------------------3----|
G|--------------------------------------------2----|
D|--5-5-5--7-5-3--2-2-2---------2-2-2---------0----| x5
A|--3-3-3---------0-0-0----0----2-2-2----2---------|
E|----------------------3b---3--0-0-0--3---3-------|

E|-----------------------------------------------------------------|
B|-----------------------------------------------------------------|
G|-----------------------------------------------------------------|
D|--5-5-5--7-5-3--2-2-2---------9--9-9-7--9--9-9-7--9--9-9--7-9----|
A|--3-3-3---------0-0-0----0----7--7-7-5--7--7-7-5--7--7-7--5-7----|
E|----------------------3b---3--0--0-0----0--0-0----0--0-0----0----|

[Verse]

Rhythm

E|------------------------------------------------------|
B|------------------------------------------------------|
G|------------------------------------------------------|  x4
D|------------------------------------------------------|  
A|-------2-2--2-------2-2--2-------2-2--2-------2-2--2--|
E|--1p0--0-0--0--1p0--0-0--0--1p0--0-0--0--1p0--0-0--0--|

E|----------------------------------------------------------------------|
B|----------------------------------------------------------------------|
G|----------------------------------------------------------------------| x2
D|--10---7----12--------------------------------------------------------| 
A|--10---7----12---------2-2--2-------2-2--2-------2-2--2-------2-2--2--|
E|--8----5----10----1p0--0-0--0--1p0--0-0--0--1p0--0-0--0--1p0--0-0--0--|

Lead


E|--12----12----12----12----12----12----12----12-----|
B|--12----12----12----12----12----12----12----12-----|
G|--14b16-14b16-14b16-14b16-14b16-14b16-14b16-14b16--| x4
D|---------------------------------------------------|
A|---------------------------------------------------|
E|---------------------------------------------------|

E|----------------------------------------------------------------------------|
B|--5---------8-----8---------------------------------------------------------|
G|--7b9----9--10b12-10b12-----------------------------------------------------|
D|----------------------------------------------------------------------------| 
A|-----------------------------2-2--2-------2-2--2-------2-2--2-------2-2--2--|
E|------------------------1p0--0-0--0--1p0--0-0--0--1p0--0-0--0--1p0--0-0--0--|

E|-----------------------------|
B|--5---------8-----8----------|
G|--7b9----9--10b12-10b12--9~--|
D|-----------------------------|
A|-----------------------------|
E|-----------------------------|

[Chorus]

Rhythm

E|--0----3----0-----0----0----0----0----0----|
B|--0----3----2-----1----0----1----0----0----|
G|--0----0----2-----0----2----3----0----0----|
D|--2----0----2-----2----2----2----2----2----|
A|--2----2----0-----3----0----3----2----2----|
E|--0----3-------------------------0----0----|

E|-----------------------------0-------------------------------0----|
B|-----------------------------3-------------------------------3----|
G|-----------------------------2-------------------------------2----|
D|--5-5-5----2-2-2----2-2-2----0----5-5-5----2-2-2----2-2-2----0----|
A|--3-3-3----0-0-0----2-2-2---------3-3-3----0-0-0----2-2-2---------|
E|--------------------0-0-0---------------------------0-0-0---------|

E|--------------------------------------------0----|
B|--------------------------------------------3----|
G|--------------------------------------------2----|
D|--5-5-5--7-5-3--2-2-2---------2-2-2---------0----| x3
A|--3-3-3---------0-0-0----0----2-2-2----2---------|
E|----------------------3b---3--0-0-0--3---3-------|

E|----------------------------------------------------------------------|
B|----------------------------------------------------------------------|
G|----------------------------------------------------------------------|
D|--5-5-5--7-5-3--2-2-2---------9--9-9-7--9--9-9-7--9--9-9--7-9--9-9-7--|
A|--3-3-3---------0-0-0----0----7--7-7-5--7--7-7-5--7--7-7--5-7--7-7-5--|
E|----------------------3b---3--0--0-0----0--0-0----0--0-0----0--0-0----|

E|----------------------------------|
B|----------------------------------|
G|----------------------9-12-7-9----|
D|--9--9-9-7--9--9-9-7--9-12-7-9----|
A|--7--7-7-5--7--7-7-5--7-10-5-7----|
E|--0--0-0----0--0-0----0------0----|

Lead

E|-------------------------------------------------------------------0-------------0----0----|
B|----0---0---0---0---0---0---0---0---0---0---0---0---0---0---0---0--0----11-------0----0----|
G|--9---9---9---9---7---7---7---7---6---6---6---6---5---5---5---5----2----14b15----9----9----|
D|---------------------------------------------------------------------------------9----9----|
A|---------------------------------------------------------------------------------7----7----|
E|---------------------------------------------------------------------------------0----0----|

E|--------------------------------------------0----|
B|--------------------------------------------3----|
G|--------------------------------------------2----|
D|--5-5-5--7-5-3--2-2-2---------2-2-2---------0----| x5
A|--3-3-3---------0-0-0----0----2-2-2----2---------|
E|----------------------3b---3--0-0-0--3---3-------|

E|----------------------------------------------------------------------|
B|----------------------------------------------------------------------|
G|----------------------------------------------------------------------|
D|--5-5-5--7-5-3--2-2-2---------9--9-9-7--9--9-9-7--9--9-9-7--9--9-9-7--|
A|--3-3-3---------0-0-0----0----7--7-7-5--7--7-7-5--7--7-7-5--7--7-7-5--|
E|----------------------3b---3--0--0-0----0--0-0----0--0-0----0--0-0----|

E|----------------------------------|
B|----------------------------------|
G|----------------------9-12-7-9----|
D|--9--9-9-7--9--9-9-7--9-12-7-9----|
A|--7--7-7-5--7--7-7-5--7-10-5-7----|
E|--0--0-0----0--0-0----0------0----|

[Solo]

Rhythm

E|----------------------------------------------------------------------------------|
B|----------------------------------------------------------------------------------|
G|----------------------------------------------------------------------------------|
D|--------------------------------7--7-7-7--2--2-2-2--2--2-2-2--3--3-3-3--5--5-5-5--|
A|--2--2-2-2--2--2-2-4--5--5-5-5--5--5-5-5--0--0-0-0--0--0-0-0--3--3-3-3--3--3-3-3--|
E|--0--0-0-0--0--0-0-2--3--3-3-3--------------------------------1--1-1-1------------|

E|----------------------------------------------------------------------------------|
B|----------------------------------------------------------------------------------|
G|----------------------------------------------------------------------------------|
D|--------------------------------7--7-7-7--2--2-2-2--2--2-2-2--2--2-2-2--2--2-2-2--|
A|--2--2-2-2--2--2-2-4--5--5-5-5--5--5-5-5--0--0-0-0--0--0-0-0--0--0-0-0--0--0-0-0--|
E|--0--0-0-0--0--0-0-2--3--3-3-3----------------------------------------------------|

Lead

E|----7---7---7---5-------10-------9---9---9----8--------10-----|
B|--------------------------------------------------------------|
G|--9---9---9---7---7--12----12--9---9---9---10---10--12---12---|
D|--------------------------------------------------------------|
A|--------------------------------------------------------------|
E|--------------------------------------------------------------|

E|----7---7---7---5-------10-------9---9---7----5---5--|
B|-----------------------------------------------------|
G|--9---9---9---7---7--12----12--9---9---7---6----6----|
D|-----------------------------------------------------|
A|-----------------------------------------------------|
E|-----------------------------------------------------|

[Pre Chorus]

Rhythm


E|----------------------------------------------------------------------------------|
B|----------------------------------------------------------------------------------|
G|--5--5-5-5--5--5-5-5--5--5-5-5--7--7-7-7--2--2-2-2--2--2-2-2--2--2-2-2--2--2-2-2--|
D|--5--5-5-5--5--5-5-5--5--5-5-5--7--7-7-7--2--2-2-2--2--2-2-2--2--2-2-2--2--2-2-2--| x2
A|--3--3-3-3--3--3-3-3--3--3-3-3--5--5-5-5--0--0-0-0--0--0-0-0--0--0-0-0--0--0-0-0--|
E|----------------------------------------------------------------------------------|

Lead

E|-------------------------------------------------------|
B|-------------------------------------------------------|
G|--12--12--11-11-9--9--7--7--4--4--4--4--4--4--4--4--4--|
D|--x---x---x--x--x--x--x--x--x--x--x--x--x--x--x--x--x--| x2
A|--10--10--9--9--7--7--5--5--2--2--2--2--2--2--2--2--2--|
E|-------------------------------------------------------|

[Chorus] 

Rhythm

E|-----------------------------0-------------------------------0----|
B|-----------------------------3-------------------------------3----|
G|-----------------------------2-------------------------------2----|
D|--5-5-5----2-2-2----2-2-2----0----5-5-5----2-2-2----2-2-2----0----| 
A|--3-3-3----0-0-0----2-2-2---------3-3-3----0-0-0----2-2-2---------|
E|--------------------0-0-0---------------------------0-0-0---------|

E|--------------------------------------------0----|
B|--------------------------------------------3----|
G|--------------------------------------------2----|
D|--5-5-5--7-5-3--2-2-2---------2-2-2---------0----| 
A|--3-3-3---------0-0-0----0----2-2-2----2---------|
E|----------------------3b---3--0-0-0--3---3-------|

E|----------------------------------------------------------------------|
B|----------------------------------------------------------------------|
G|----------------------------------------------------------------------|
D|--5-5-5--7-5-3--2-2-2---------9--9-9-7--9--9-9-7--9--9-9-7--9--9-9-7--|
A|--3-3-3---------0-0-0----0----7--7-7-5--7--7-7-5--7--7-7-5--7--7-7-5--|
E|----------------------3b---3--0--0-0----0--0-0----0--0-0----0--0-0----|

E|-------------------------|
B|-------------------------|
G|--9-12-9-7-7-12-9-7-9-9--|
D|--9-12-9-7-9-12-9-7-9-9--|
A|--7-10-7-5-7-10-7-5-5-7--|
E|-------------------------|

Lead

E|--------------------------------------------0----|
B|--------------------------------------------3----|
G|--------------------------------------------2----|
D|--5-5-5--7-5-3--2-2-2---------2-2-2---------0----| x3
A|--3-3-3---------0-0-0----0----2-2-2----2---------|
E|----------------------3b---3--0-0-0--3---3-------|

E|----------------------------------------------------------------------|
B|----------------------------------------------------------------------|
G|----------------------------------------------------------------------|
D|--5-5-5--7-5-3--2-2-2---------9--9-9-7--9--9-9-7--9--9-9-7--9--9-9-7--|
A|--3-3-3---------0-0-0----0----7--7-7-5--7--7-7-5--7--7-7-5--7--7-7-5--|
E|----------------------3b---3--0--0-0----0--0-0----0--0-0----0--0-0----|

E|-------------------------|
B|-------------------------|
G|--9-12-9-7-7-12-9-7-9-9--|
D|--9-12-9-7-9-12-9-7-9-9--|
A|--7-10-7-5-7-10-7-5-5-7--|
E|-------------------------|

[End]

Rhythm

E|-------------------------------------------------x----|
B|-------------------------------------------------x----|
G|-------------------------------------------------x----|
D|-------------------------------------------------x----|
A|-------2-2--2-------2-2--2-------2-2--2-------2--x----|
E|--1p0--0-0--0--1p0--0-0--0--1p0--0-0--0--1p0--0--x----|

E|-----------------------------------------------------------|
B|-----------------------------------------------------------|
G|-----------------------------------------------------------|
D|-----------------------------------------------------------|
A|-------2-2--2-------2-2--2-------2-2--2-------2-------\\\--|
E|--1p0--0-0--0--1p0--0-0--0--1p0--0-0--0--1p0--0--\\\-------|

E|-------------------------------------------------x----|
B|-------------------------------------------------x----|
G|-------------------------------------------------x----|
D|-------------------------------------------------x----|
A|-------2-2--2-------2-2--2-------2-2--2-------2--x----|
E|--1p0--0-0--0--1p0--0-0--0--1p0--0-0--0--1p0--0--x----|

E|--------------------------------------|
B|--------------------------------------|
G|----------------------------9-9--7-9--|
D|----------------------------9-9--7-9--|
A|-------2-2--2-------2-2--2--7-7--5-7--|
E|--1p0--0-0--0--1p0--0-0--0------------|

Lead

E|----------------------------------------------------|
B|----------------------------------------------------|
G|--10p9--9-9-9--10p9--9-9-9--10p9--9-9-9--10p9--9-9--| x3
D|----------------------------------------------------|
A|----------------------------------------------------|
E|----------------------------------------------------|

E|--------------------------------------|
B|--------------------------------------|
G|--10p9--9-9-9--10p9--9-9-9--9-9--5-9--|
D|----------------------------9-9--7-9--|
A|----------------------------7-7--5-7--|
E|--------------------------------------|

************************************

| b  Bend
| ~  Vibrato
| p  Pull-off
| \  Slide down
| x  Dead note


************************************

            
            
Suggest correction
Creating personal tab
Creating personal tab
You can edit any tab online and save it as your Personal.

You can edit, replace or remove any tab part or add personal notes – all changes will be seen only by you.

Personal tabs can be accessed anytime from any device, even offline.
Learn more »
comments
print report bad tab
2 comments total.
0 reply
patrick.twomey. 10 Jun 06, 2017 05:21 PM, edited at 09:24 pm

the main riff sounds better in version 2, this intro is better though

0 reply
phrank25 10 19 hours ago

love it thanks

guest
You may want to rate the tab now too:
select rating
Wanna post a correction for this tab? Suggest correction